  0
SECTION
  2
HEADER
  9
$ACADVER
  1
AC1009
  9
$DWGCODEPAGE
  3
ansi_1252
  9
$INSBASE
 10
0.0
 20
0.0
 30
0.0
  9
$EXTMIN
 10
56.85910829772298
 20
88.72899999999936
 30
0.0
  9
$EXTMAX
 10
218.0425767674683
 20
291.4426698427842
 30
0.0
  9
$LIMMIN
 10
0.0
 20
0.0
  9
$LIMMAX
 10
12.0
 20
9.0
  9
$ORTHOMODE
 70
     0
  9
$REGENMODE
 70
     1
  9
$FILLMODE
 70
     1
  9
$QTEXTMODE
 70
     0
  9
$MIRRTEXT
 70
     1
  9
$DRAGMODE
 70
     2
  9
$LTSCALE
 40
1.0
  9
$OSMODE
 70
    37
  9
$ATTMODE
 70
     1
  9
$TEXTSIZE
 40
0.2
  9
$TRACEWID
 40
0.05
  9
$TEXTSTYLE
  7
STANDARD
  9
$CLAYER
  8
0
  9
$CELTYPE
  6
BYLAYER
  9
$CECOLOR
 62
   256
  9
$DIMSCALE
 40
1.0
  9
$DIMASZ
 40
0.18
  9
$DIMEXO
 40
0.0625
  9
$DIMDLI
 40
0.38
  9
$DIMRND
 40
0.0
  9
$DIMDLE
 40
0.0
  9
$DIMEXE
 40
0.18
  9
$DIMTP
 40
0.0
  9
$DIMTM
 40
0.0
  9
$DIMTXT
 40
0.18
  9
$DIMCEN
 40
0.09
  9
$DIMTSZ
 40
0.0
  9
$DIMTOL
 70
     0
  9
$DIMLIM
 70
     0
  9
$DIMTIH
 70
     1
  9
$DIMTOH
 70
     1
  9
$DIMSE1
 70
     0
  9
$DIMSE2
 70
     0
  9
$DIMTAD
 70
     0
  9
$DIMZIN
 70
     0
  9
$DIMBLK
  1

  9
$DIMASO
 70
     1
  9
$DIMSHO
 70
     1
  9
$DIMPOST
  1

  9
$DIMAPOST
  1

  9
$DIMALT
 70
     0
  9
$DIMALTD
 70
     2
  9
$DIMALTF
 40
25.4
  9
$DIMLFAC
 40
1.0
  9
$DIMTOFL
 70
     0
  9
$DIMTVP
 40
0.0
  9
$DIMTIX
 70
     0
  9
$DIMSOXD
 70
     0
  9
$DIMSAH
 70
     0
  9
$DIMBLK1
  1

  9
$DIMBLK2
  1

  9
$DIMSTYLE
  2
STANDARD
  9
$DIMCLRD
 70
     0
  9
$DIMCLRE
 70
     0
  9
$DIMCLRT
 70
     0
  9
$DIMTFAC
 40
1.0
  9
$DIMGAP
 40
0.09
  9
$LUNITS
 70
     2
  9
$LUPREC
 70
     4
  9
$SKETCHINC
 40
0.1
  9
$FILLETRAD
 40
0.5
  9
$AUNITS
 70
     0
  9
$AUPREC
 70
     0
  9
$MENU
  1
.
  9
$ELEVATION
 40
0.0
  9
$PELEVATION
 40
0.0
  9
$THICKNESS
 40
0.0
  9
$LIMCHECK
 70
     0
  9
$CHAMFERA
 40
0.0
  9
$CHAMFERB
 40
0.0
  9
$SKPOLY
 70
     0
  9
$TDCREATE
 40
2454910.5
  9
$TDUPDATE
 40
2459720.512916227
  9
$TDINDWG
 40
0.0000000116
  9
$TDUSRTIMER
 40
0.0000000116
  9
$USRTIMER
 70
     1
  9
$ANGBASE
 50
0.0
  9
$ANGDIR
 70
     0
  9
$PDMODE
 70
     0
  9
$PDSIZE
 40
0.0
  9
$PLINEWID
 40
0.0
  9
$COORDS
 70
     1
  9
$SPLFRAME
 70
     0
  9
$SPLINETYPE
 70
     6
  9
$SPLINESEGS
 70
     8
  9
$ATTDIA
 70
     0
  9
$ATTREQ
 70
     1
  9
$HANDLING
 70
     1
  9
$HANDSEED
  5
A56
  9
$SURFTAB1
 70
     6
  9
$SURFTAB2
 70
     6
  9
$SURFTYPE
 70
     6
  9
$SURFU
 70
     6
  9
$SURFV
 70
     6
  9
$UCSNAME
  2

  9
$UCSORG
 10
0.0
 20
0.0
 30
0.0
  9
$UCSXDIR
 10
1.0
 20
0.0
 30
0.0
  9
$UCSYDIR
 10
0.0
 20
1.0
 30
0.0
  9
$PUCSNAME
  2

  9
$PUCSORG
 10
0.0
 20
0.0
 30
0.0
  9
$PUCSXDIR
 10
1.0
 20
0.0
 30
0.0
  9
$PUCSYDIR
 10
0.0
 20
1.0
 30
0.0
  9
$USERI1
 70
     0
  9
$USERI2
 70
     0
  9
$USERI3
 70
     0
  9
$USERI4
 70
     0
  9
$USERI5
 70
     0
  9
$USERR1
 40
0.0
  9
$USERR2
 40
0.0
  9
$USERR3
 40
0.0
  9
$USERR4
 40
0.0
  9
$USERR5
 40
0.0
  9
$WORLDVIEW
 70
     1
  9
$SHADEDGE
 70
     3
  9
$SHADEDIF
 70
    70
  9
$TILEMODE
 70
     1
  9
$MAXACTVP
 70
    64
  9
$PLIMCHECK
 70
     0
  9
$PEXTMIN
 10
1.000000000000000E+20
 20
1.000000000000000E+20
 30
1.000000000000000E+20
  9
$PEXTMAX
 10
-1.000000000000000E+20
 20
-1.000000000000000E+20
 30
-1.000000000000000E+20
  9
$PLIMMIN
 10
0.0
 20
0.0
  9
$PLIMMAX
 10
12.0
 20
9.0
  9
$UNITMODE
 70
     0
  9
$VISRETAIN
 70
     1
  9
$PLINEGEN
 70
     0
  9
$PSLTSCALE
 70
     1
  0
ENDSEC
  0
SECTION
  2
TABLES
  0
TABLE
  2
VPORT
 70
     1
  0
VPORT
  2
*ACTIVE
 70
     0
 10
0.0
 20
0.0
 11
1.0
 21
1.0
 12
10.42990654205607
 22
4.5
 13
0.0
 23
0.0
 14
0.5
 24
0.5
 15
0.5
 25
0.5
 16
0.0
 26
0.0
 36
1.0
 17
0.0
 27
0.0
 37
0.0
 40
9.0
 41
1.972972972850329
 42
50.0
 43
0.0
 44
0.0
 50
0.0
 51
0.0
 71
     0
 72
   100
 73
     1
 74
     3
 75
     0
 76
     0
 77
     0
 78
     0
  0
ENDTAB
  0
TABLE
  2
LTYPE
 70
     2
  0
LTYPE
  2
CONTINUOUS
 70
     0
  3
Solid line
 72
    65
 73
     0
 40
0.0
  0
LTYPE
  2
CONTINUOUS2
 70
     0
  3
Solid Line
 72
    65
 73
     0
 40
0.0
  0
ENDTAB
  0
TABLE
  2
LAYER
 70
     2
  0
LAYER
  2
0
 70
     0
 62
     7
  6
CONTINUOUS
  0
LAYER
  2
NONE
 70
     0
 62
    18
  6
CONTINUOUS
  0
ENDTAB
  0
TABLE
  2
STYLE
 70
     1
  0
STYLE
  2
STANDARD
 70
     0
 40
0.0
 41
1.0
 50
0.0
 71
     0
 42
0.2
  3
txt
  4

  0
ENDTAB
  0
TABLE
  2
VIEW
 70
     0
  0
ENDTAB
  0
TABLE
  2
UCS
 70
     0
  0
ENDTAB
  0
TABLE
  2
APPID
 70
     1
  0
APPID
  2
ACAD
 70
     0
  0
ENDTAB
  0
TABLE
  2
DIMSTYLE
 70
     1
  0
DIMSTYLE
  2
STANDARD
 70
     0
  3

  4

  5

  6

  7

 40
1.0
 41
0.18
 42
0.0625
 43
0.38
 44
0.18
 45
0.0
 46
0.0
 47
0.0
 48
0.0
140
0.18
141
0.09
142
0.0
143
25.4
144
1.0
145
0.0
146
1.0
147
0.09
 71
     0
 72
     0
 73
     1
 74
     1
 75
     0
 76
     0
 77
     0
 78
     0
170
     0
171
     2
172
     0
173
     0
174
     0
175
     0
176
     0
177
     0
178
     0
  0
ENDTAB
  0
ENDSEC
  0
SECTION
  2
BLOCKS
  0
BLOCK
  8
0
  2
$MODEL_SPACE
 70
     0
 10
0.0
 20
0.0
 30
0.0
  3
$MODEL_SPACE
  1

  0
ENDBLK
  5
21
  8
0
  0
BLOCK
 67
     1
  8
0
  2
$PAPER_SPACE
 70
     0
 10
0.0
 20
0.0
 30
0.0
  3
$PAPER_SPACE
  1

  0
ENDBLK
  5
1D
 67
     1
  8
0
  0
ENDSEC
  0
SECTION
  2
ENTITIES
  0
POLYLINE
  5
70
  8
NONE
 66
     1
 10
0.0
 20
0.0
 30
0.0
 70
     1
  0
VERTEX
  5
D7
  8
NONE
 10
75.0
 20
267.2413966942142
 30
0.0
  0
VERTEX
  5
D8
  8
NONE
 10
75.01032577453985
 20
267.3934954906705
 30
0.0
  0
VERTEX
  5
D9
  8
NONE
 10
75.04063289161545
 20
267.5412006469603
 30
0.0
  0
VERTEX
  5
DA
  8
NONE
 10
75.08991604141083
 20
267.683764411981
 30
0.0
  0
VERTEX
  5
DB
  8
NONE
 10
75.15716991411009
 20
267.8204390346298
 30
0.0
  0
VERTEX
  5
DC
  8
NONE
 10
75.24138919989726
 20
267.9504767638039
 30
0.0
  0
VERTEX
  5
DD
  8
NONE
 10
75.34156858895639
 20
268.0731298484006
 30
0.0
  0
VERTEX
  5
DE
  8
NONE
 10
75.45670277147158
 20
268.187650537317
 30
0.0
  0
VERTEX
  5
DF
  8
NONE
 10
75.5857864376269
 20
268.2932910794505
 30
0.0
  0
VERTEX
  5
E0
  8
NONE
 10
75.72781427760633
 20
268.3893037236982
 30
0.0
  0
VERTEX
  5
E1
  8
NONE
 10
75.881780981594
 20
268.4749407189574
 30
0.0
  0
VERTEX
  5
E2
  8
NONE
 10
76.04668123977396
 20
268.5494543141253
 30
0.0
  0
VERTEX
  5
E3
  8
NONE
 10
76.22150974233026
 20
268.6120967580993
 30
0.0
  0
VERTEX
  5
E4
  8
NONE
 10
76.40526117944695
 20
268.6621202997764
 30
0.0
  0
VERTEX
  5
E5
  8
NONE
 10
76.5969302413081
 20
268.698777188054
 30
0.0
  0
VERTEX
  5
E6
  8
NONE
 10
76.79551161809778
 20
268.7213196718292
 30
0.0
  0
VERTEX
  5
E7
  8
NONE
 10
77.00000000000001
 20
268.7289999999994
 30
0.0
  0
VERTEX
  5
E8
  8
NONE
 10
161.0
 20
268.7289999999994
 30
0.0
  0
VERTEX
  5
E9
  8
NONE
 10
161.2044883819022
 20
268.7213196718292
 30
0.0
  0
VERTEX
  5
EA
  8
NONE
 10
161.4030697586919
 20
268.698777188054
 30
0.0
  0
VERTEX
  5
EB
  8
NONE
 10
161.594738820553
 20
268.6621202997764
 30
0.0
  0
VERTEX
  5
EC
  8
NONE
 10
161.7784902576697
 20
268.6120967580993
 30
0.0
  0
VERTEX
  5
ED
  8
NONE
 10
161.953318760226
 20
268.5494543141253
 30
0.0
  0
VERTEX
  5
EE
  8
NONE
 10
162.118219018406
 20
268.4749407189574
 30
0.0
  0
VERTEX
  5
EF
  8
NONE
 10
162.2721857223937
 20
268.3893037236982
 30
0.0
  0
VERTEX
  5
F0
  8
NONE
 10
162.4142135623731
 20
268.2932910794505
 30
0.0
  0
VERTEX
  5
F1
  8
NONE
 10
162.5432972285284
 20
268.187650537317
 30
0.0
  0
VERTEX
  5
F2
  8
NONE
 10
162.6584314110436
 20
268.0731298484006
 30
0.0
  0
VERTEX
  5
F3
  8
NONE
 10
162.7586108001027
 20
267.9504767638039
 30
0.0
  0
VERTEX
  5
F4
  8
NONE
 10
162.8428300858899
 20
267.8204390346298
 30
0.0
  0
VERTEX
  5
F5
  8
NONE
 10
162.9100839585892
 20
267.683764411981
 30
0.0
  0
VERTEX
  5
F6
  8
NONE
 10
162.9593671083845
 20
267.5412006469603
 30
0.0
  0
VERTEX
  5
F7
  8
NONE
 10
162.9896742254601
 20
267.3934954906705
 30
0.0
  0
VERTEX
  5
F8
  8
NONE
 10
163.0
 20
267.2413966942142
 30
0.0
  0
VERTEX
  5
F9
  8
NONE
 10
163.0
 20
90.21660330578447
 30
0.0
  0
VERTEX
  5
FA
  8
NONE
 10
162.9896742254601
 20
90.06450450932826
 30
0.0
  0
VERTEX
  5
FB
  8
NONE
 10
162.9593671083845
 20
89.91679935303844
 30
0.0
  0
VERTEX
  5
FC
  8
NONE
 10
162.9100839585892
 20
89.77423558801776
 30
0.0
  0
VERTEX
  5
FD
  8
NONE
 10
162.8428300858899
 20
89.63756096536898
 30
0.0
  0
VERTEX
  5
FE
  8
NONE
 10
162.7586108001027
 20
89.50752323619487
 30
0.0
  0
VERTEX
  5
FF
  8
NONE
 10
162.6584314110436
 20
89.38487015159822
 30
0.0
  0
VERTEX
  5
100
  8
NONE
 10
162.5432972285284
 20
89.27034946268176
 30
0.0
  0
VERTEX
  5
101
  8
NONE
 10
162.4142135623731
 20
89.16470892054829
 30
0.0
  0
VERTEX
  5
102
  8
NONE
 10
162.2721857223937
 20
89.06869627630057
 30
0.0
  0
VERTEX
  5
103
  8
NONE
 10
162.118219018406
 20
88.98305928104133
 30
0.0
  0
VERTEX
  5
104
  8
NONE
 10
161.953318760226
 20
88.90854568587338
 30
0.0
  0
VERTEX
  5
105
  8
NONE
 10
161.7784902576697
 20
88.84590324189944
 30
0.0
  0
VERTEX
  5
106
  8
NONE
 10
161.594738820553
 20
88.7958797002223
 30
0.0
  0
VERTEX
  5
107
  8
NONE
 10
161.4030697586919
 20
88.75922281194474
 30
0.0
  0
VERTEX
  5
108
  8
NONE
 10
161.2044883819022
 20
88.7366803281695
 30
0.0
  0
VERTEX
  5
109
  8
NONE
 10
161.0
 20
88.72899999999936
 30
0.0
  0
VERTEX
  5
10A
  8
NONE
 10
77.00000000000001
 20
88.72899999999936
 30
0.0
  0
VERTEX
  5
10B
  8
NONE
 10
76.79551161809778
 20
88.7366803281695
 30
0.0
  0
VERTEX
  5
10C
  8
NONE
 10
76.59693024130812
 20
88.75922281194474
 30
0.0
  0
VERTEX
  5
10D
  8
NONE
 10
76.40526117944695
 20
88.7958797002223
 30
0.0
  0
VERTEX
  5
10E
  8
NONE
 10
76.22150974233027
 20
88.84590324189944
 30
0.0
  0
VERTEX
  5
10F
  8
NONE
 10
76.04668123977399
 20
88.90854568587338
 30
0.0
  0
VERTEX
  5
110
  8
NONE
 10
75.88178098159403
 20
88.98305928104133
 30
0.0
  0
VERTEX
  5
111
  8
NONE
 10
75.72781427760636
 20
89.06869627630057
 30
0.0
  0
VERTEX
  5
112
  8
NONE
 10
75.58578643762691
 20
89.16470892054829
 30
0.0
  0
VERTEX
  5
113
  8
NONE
 10
75.45670277147161
 20
89.27034946268176
 30
0.0
  0
VERTEX
  5
114
  8
NONE
 10
75.34156858895642
 20
89.38487015159822
 30
0.0
  0
VERTEX
  5
115
  8
NONE
 10
75.24138919989728
 20
89.50752323619487
 30
0.0
  0
VERTEX
  5
116
  8
NONE
 10
75.1571699141101
 20
89.63756096536898
 30
0.0
  0
VERTEX
  5
117
  8
NONE
 10
75.08991604141083
 20
89.77423558801776
 30
0.0
  0
VERTEX
  5
118
  8
NONE
 10
75.04063289161545
 20
89.91679935303844
 30
0.0
  0
VERTEX
  5
119
  8
NONE
 10
75.01032577453987
 20
90.06450450932826
 30
0.0
  0
VERTEX
  5
11A
  8
NONE
 10
75.0
 20
90.21660330578447
 30
0.0
  0
SEQEND
  5
9F6
  8
NONE
  0
POLYLINE
  5
71
  8
NONE
 66
     1
 10
0.0
 20
0.0
 30
0.0
 70
     1
  0
VERTEX
  5
11B
  8
NONE
 10
101.25
 20
229.9789999999994
 30
0.0
 42
-0.4142135623730951
  0
VERTEX
  5
11C
  8
NONE
 10
119.0
 20
247.7289999999994
 30
0.0
 42
-0.4142135623730951
  0
VERTEX
  5
11D
  8
NONE
 10
136.75
 20
229.9789999999994
 30
0.0
  0
VERTEX
  5
11E
  8
NONE
 10
136.75
 20
189.4789999999994
 30
0.0
 42
-0.4142135623730951
  0
VERTEX
  5
11F
  8
NONE
 10
119.0
 20
171.7289999999994
 30
0.0
 42
-0.4142135623730951
  0
VERTEX
  5
120
  8
NONE
 10
101.25
 20
189.4789999999994
 30
0.0
  0
SEQEND
  5
9F7
  8
NONE
  0
POLYLINE
  5
72
  8
NONE
 66
     1
 10
0.0
 20
0.0
 30
0.0
 70
     1
  0
VERTEX
  5
121
  8
NONE
 10
146.0
 20
190.8289999999994
 30
0.0
 42
0.4142135623730951
  0
VERTEX
  5
122
  8
NONE
 10
142.9
 20
187.7289999999994
 30
0.0
 42
0.4142135623730951
  0
VERTEX
  5
123
  8
NONE
 10
146.0
 20
184.6289999999994
 30
0.0
 42
0.4142135623730951
  0
VERTEX
  5
124
  8
NONE
 10
149.1
 20
187.7289999999994
 30
0.0
 42
0.4142135623730951
  0
SEQEND
  5
9F8
  8
NONE
  0
POLYLINE
  5
73
  8
NONE
 66
     1
 10
0.0
 20
0.0
 30
0.0
 70
     1
  0
VERTEX
  5
125
  8
NONE
 10
147.0
 20
145.8289999999994
 30
0.0
 42
0.4142135623730951
  0
VERTEX
  5
126
  8
NONE
 10
143.9
 20
142.7289999999994
 30
0.0
 42
0.4142135623730951
  0
VERTEX
  5
127
  8
NONE
 10
147.0
 20
139.6289999999994
 30
0.0
 42
0.4142135623730951
  0
VERTEX
  5
128
  8
NONE
 10
150.1
 20
142.7289999999994
 30
0.0
 42
0.4142135623730951
  0
SEQEND
  5
9F9
  8
NONE
  0
POLYLINE
  5
74
  8
NONE
 66
     1
 10
0.0
 20
0.0
 30
0.0
 70
     1
  0
VERTEX
  5
129
  8
NONE
 10
90.99799999999999
 20
145.8289999999994
 30
0.0
 42
0.4142135623730951
  0
VERTEX
  5
12A
  8
NONE
 10
87.89799999999997
 20
142.7289999999994
 30
0.0
 42
0.4142135623730951
  0
VERTEX
  5
12B
  8
NONE
 10
90.99799999999999
 20
139.6289999999994
 30
0.0
 42
0.4142135623730951
  0
VERTEX
  5
12C
  8
NONE
 10
94.09799999999998
 20
142.7289999999994
 30
0.0
 42
0.4142135623730951
  0
SEQEND
  5
9FA
  8
NONE
  0
POLYLINE
  5
75
  8
NONE
 66
     1
 10
0.0
 20
0.0
 30
0.0
 70
     1
  0
VERTEX
  5
12D
  8
NONE
 10
91.99799999999999
 20
190.8289999999994
 30
0.0
 42
0.4142135623730951
  0
VERTEX
  5
12E
  8
NONE
 10
88.89799999999997
 20
187.7289999999994
 30
0.0
 42
0.4142135623730951
  0
VERTEX
  5
12F
  8
NONE
 10
91.99799999999999
 20
184.6289999999994
 30
0.0
 42
0.4142135623730951
  0
VERTEX
  5
130
  8
NONE
 10
95.09799999999998
 20
187.7289999999994
 30
0.0
 42
0.4142135623730951
  0
SEQEND
  5
9FB
  8
NONE
  0
POLYLINE
  5
76
  8
NONE
 66
     1
 10
0.0
 20
0.0
 30
0.0
 70
     1
  0
VERTEX
  5
131
  8
NONE
 10
194.1229504109214
 20
185.3020000000287
 30
0.0
  0
VERTEX
  5
132
  8
NONE
 10
194.8729504109214
 20
187.7290000000287
 30
0.0
  0
VERTEX
  5
133
  8
NONE
 10
195.6229504109214
 20
185.3020000000287
 30
0.0
  0
SEQEND
  5
9FC
  8
NONE
  0
POLYLINE
  5
77
  8
NONE
 66
     1
 10
0.0
 20
0.0
 30
0.0
 70
     1
  0
VERTEX
  5
134
  8
NONE
 10
195.6229504109214
 20
145.1559999999903
 30
0.0
  0
VERTEX
  5
135
  8
NONE
 10
194.8729504109214
 20
142.7289999999903
 30
0.0
  0
VERTEX
  5
136
  8
NONE
 10
194.1229504109214
 20
145.1559999999903
 30
0.0
  0
SEQEND
  5
9FD
  8
NONE
  0
POLYLINE
  5
78
  8
NONE
 66
     1
 10
0.0
 20
0.0
 30
0.0
 70
     1
  0
VERTEX
  5
137
  8
NONE
 10
193.0621097029568
 20
164.7732477876201
 30
0.0
  0
VERTEX
  5
138
  8
NONE
 10
193.0621097029568
 20
164.4590884955848
 30
0.0
  0
VERTEX
  5
139
  8
NONE
 10
192.6594548357001
 20
164.4590884955848
 30
0.0
  0
VERTEX
  5
13A
  8
NONE
 10
192.6594548357001
 20
163.6670530973547
 30
0.0
  0
VERTEX
  5
13B
  8
NONE
 10
192.2944105879125
 20
163.6670530973547
 30
0.0
  0
VERTEX
  5
13C
  8
NONE
 10
192.2944105879125
 20
164.4590884955848
 30
0.0
  0
VERTEX
  5
13D
  8
NONE
 10
191.0244990834877
 20
164.4590884955848
 30
0.0
  0
VERTEX
  5
13E
  8
NONE
 10
191.0244990834877
 20
164.7422743362927
 30
0.0
  0
VERTEX
  5
13F
  8
NONE
 10
192.4160920038417
 20
166.7290000000095
 30
0.0
  0
VERTEX
  5
140
  8
NONE
 10
192.6594548357001
 20
166.7290000000095
 30
0.0
  0
VERTEX
  5
141
  8
NONE
 10
192.6594548357001
 20
164.7732477876201
 30
0.0
  0
SEQEND
  5
9FE
  8
NONE
  0
POLYLINE
  5
79
  8
NONE
 66
     1
 10
0.0
 20
0.0
 30
0.0
 70
     1
  0
VERTEX
  5
142
  8
NONE
 10
192.2944105879125
 20
164.7732477876201
 30
0.0
  0
VERTEX
  5
143
  8
NONE
 10
192.2944105879125
 20
166.2621858407175
 30
0.0
  0
VERTEX
  5
144
  8
NONE
 10
191.2413132427798
 20
164.7732477876201
 30
0.0
  0
SEQEND
  5
9FF
  8
NONE
  0
POLYLINE
  5
7A
  8
NONE
 66
     1
 10
0.0
 20
0.0
 30
0.0
 70
     1
  0
VERTEX
  5
145
  8
NONE
 10
195.1860035082665
 20
166.6670530973547
 30
0.0
  0
VERTEX
  5
146
  8
NONE
 10
195.0134371365851
 20
166.2909469026644
 30
0.0
  0
VERTEX
  5
147
  8
NONE
 10
194.1107822693285
 20
166.2909469026644
 30
0.0
  0
VERTEX
  5
148
  8
NONE
 10
193.9138796144612
 20
165.8882920354077
 30
0.0
  0
VERTEX
  5
149
  8
NONE
 10
194.0566478666736
 20
165.8626075774432
 30
0.0
  0
VERTEX
  5
14A
  8
NONE
 10
194.1918110303904
 20
165.8286957964697
 30
0.0
  0
VERTEX
  5
14B
  8
NONE
 10
194.3193691056116
 20
165.7865566924874
 30
0.0
  0
VERTEX
  5
14C
  8
NONE
 10
194.4393220923373
 20
165.7361902654962
 30
0.0
  0
VERTEX
  5
14D
  8
NONE
 10
194.5516699905674
 20
165.6775965154962
 30
0.0
  0
VERTEX
  5
14E
  8
NONE
 10
194.656412800302
 20
165.6107754424874
 30
0.0
  0
VERTEX
  5
14F
  8
NONE
 10
194.7535505215409
 20
165.5357270464697
 30
0.0
  0
VERTEX
  5
150
  8
NONE
 10
194.8430831542842
 20
165.4524513274432
 30
0.0
  0
VERTEX
  5
151
  8
NONE
 10
194.9120474795054
 20
165.3755707964697
 30
0.0
  0
VERTEX
  5
152
  8
NONE
 10
194.9718165613639
 20
165.2953716814255
 30
0.0
  0
VERTEX
  5
153
  8
NONE
 10
195.0223903998594
 20
165.2118539823104
 30
0.0
  0
VERTEX
  5
154
  8
NONE
 10
195.0637689949922
 20
165.1250176991246
 30
0.0
  0
VERTEX
  5
155
  8
NONE
 10
195.0959523467621
 20
165.0348628318679
 30
0.0
  0
VERTEX
  5
156
  8
NONE
 10
195.1189404551692
 20
164.9413893805405
 30
0.0
  0
VERTEX
  5
157
  8
NONE
 10
195.1327333202134
 20
164.8445973451423
 30
0.0
  0
VERTEX
  5
158
  8
NONE
 10
195.1373309418948
 20
164.7444867256732
 30
0.0
  0
VERTEX
  5
159
  8
NONE
 10
195.1313160082665
 20
164.6283362831954
 30
0.0
  0
VERTEX
  5
15A
  8
NONE
 10
195.1132712073816
 20
164.5166106194785
 30
0.0
  0
VERTEX
  5
15B
  8
NONE
 10
195.08319653924
 20
164.4093097345228
 30
0.0
  0
VERTEX
  5
15C
  8
NONE
 10
195.0410920038417
 20
164.3064336283281
 30
0.0
  0
VERTEX
  5
15D
  8
NONE
 10
194.9898613622488
 20
164.2095033185936
 30
0.0
  0
VERTEX
  5
15E
  8
NONE
 10
194.9324083755232
 20
164.1200398230184
 30
0.0
  0
VERTEX
  5
15F
  8
NONE
 10
194.8687330436647
 20
164.0380431416025
 30
0.0
  0
VERTEX
  5
160
  8
NONE
 10
194.7988353666736
 20
163.9635132743458
 30
0.0
  0
VERTEX
  5
161
  8
NONE
 10
194.7237524020718
 20
163.8961736725759
 30
0.0
  0
VERTEX
  5
162
  8
NONE
 10
194.6445212073816
 20
163.8357477876202
 30
0.0
  0
VERTEX
  5
163
  8
NONE
 10
194.5611417826028
 20
163.7822356194785
 30
0.0
  0
VERTEX
  5
164
  8
NONE
 10
194.4736141277355
 20
163.7356371681511
 30
0.0
  0
VERTEX
  5
165
  8
NONE
 10
194.3455720923373
 20
163.6824015486821
 30
0.0
  0
VERTEX
  5
166
  8
NONE
 10
194.2158707649037
 20
163.6443761062042
 30
0.0
  0
VERTEX
  5
167
  8
NONE
 10
194.0845101454346
 20
163.6215608407174
 30
0.0
  0
VERTEX
  5
168
  8
NONE
 10
193.9514902339302
 20
163.6139557522219
 30
0.0
  0
VERTEX
  5
169
  8
NONE
 10
193.8257297250807
 20
163.6196941371776
 30
0.0
  0
VERTEX
  5
16A
  8
NONE
 10
193.7183597029568
 20
163.6369092920449
 30
0.0
  0
VERTEX
  5
16B
  8
NONE
 10
193.6293801675586
 20
163.6656012168237
 30
0.0
  0
VERTEX
  5
16C
  8
NONE
 10
193.558791118886
 20
163.705769911514
 30
0.0
  0
VERTEX
  5
16D
  8
NONE
 10
193.50507153924
 20
163.7528523230184
 30
0.0
  0
VERTEX
  5
16E
  8
NONE
 10
193.4667004109214
 20
163.8022853982396
 30
0.0
  0
VERTEX
  5
16F
  8
NONE
 10
193.4436777339302
 20
163.8540691371777
 30
0.0
  0
VERTEX
  5
170
  8
NONE
 10
193.4360035082665
 20
163.9082035398325
 30
0.0
  0
VERTEX
  5
171
  8
NONE
 10
193.4487247472046
 20
163.966555309744
 30
0.0
  0
VERTEX
  5
172
  8
NONE
 10
193.4868884640187
 20
164.0177168141688
 30
0.0
  0
VERTEX
  5
173
  8
NONE
 10
193.5444105879125
 20
164.0533915929299
 30
0.0
  0
VERTEX
  5
174
  8
NONE
 10
193.6152070480895
 20
164.0652831858502
 30
0.0
  0
VERTEX
  5
175
  8
NONE
 10
193.66913403924
 20
164.0608584070892
 30
0.0
  0
VERTEX
  5
176
  8
NONE
 10
193.7158707649037
 20
164.047584070806
 30
0.0
  0
VERTEX
  5
177
  8
NONE
 10
193.7742225348152
 20
164.0160575221334
 30
0.0
  0
VERTEX
  5
178
  8
NONE
 10
193.862994658709
 20
163.9568761062042
 30
0.0
  0
VERTEX
  5
179
  8
NONE
 10
193.9462358091515
 20
163.9065442477971
 30
0.0
  0
VERTEX
  5
17A
  8
NONE
 10
194.0300300569391
 20
163.8705929203635
 30
0.0
  0
VERTEX
  5
17B
  8
NONE
 10
194.1143774020718
 20
163.8490221239034
 30
0.0
  0
VERTEX
  5
17C
  8
NONE
 10
194.1992778445497
 20
163.8418318584166
 30
0.0
  0
VERTEX
  5
17D
  8
NONE
 10
194.3247618047267
 20
163.8540691371777
 30
0.0
  0
VERTEX
  5
17E
  8
NONE
 10
194.4423641277355
 20
163.8907809734609
 30
0.0
  0
VERTEX
  5
17F
  8
NONE
 10
194.5520848135762
 20
163.9519673672661
 30
0.0
  0
VERTEX
  5
180
  8
NONE
 10
194.6539238622488
 20
164.0376283185936
 30
0.0
  0
VERTEX
  5
181
  8
NONE
 10
194.7395848135762
 20
164.1408501106289
 30
0.0
  0
VERTEX
  5
182
  8
NONE
 10
194.8007712073816
 20
164.2547190265582
 30
0.0
  0
VERTEX
  5
183
  8
NONE
 10
194.8374830436647
 20
164.3792350663812
 30
0.0
  0
VERTEX
  5
184
  8
NONE
 10
194.8497203224258
 20
164.514398230098
 30
0.0
  0
VERTEX
  5
185
  8
NONE
 10
194.8387966498594
 20
164.648178650452
 30
0.0
  0
VERTEX
  5
186
  8
NONE
 10
194.8060256321603
 20
164.7773960177086
 30
0.0
  0
VERTEX
  5
187
  8
NONE
 10
194.7514072693284
 20
164.9020503318679
 30
0.0
  0
VERTEX
  5
188
  8
NONE
 10
194.6749415613639
 20
165.0221415929299
 30
0.0
  0
VERTEX
  5
189
  8
NONE
 10
194.5792557206559
 20
165.1332450221334
 30
0.0
  0
VERTEX
  5
18A
  8
NONE
 10
194.4669769595939
 20
165.2309358407175
 30
0.0
  0
VERTEX
  5
18B
  8
NONE
 10
194.338105278178
 20
165.3152140486821
 30
0.0
  0
VERTEX
  5
18C
  8
NONE
 10
194.1926406764081
 20
165.3860796460272
 30
0.0
  0
VERTEX
  5
18D
  8
NONE
 10
194.0611417826028
 20
165.4306039823104
 30
0.0
  0
VERTEX
  5
18E
  8
NONE
 10
193.9077955436647
 20
165.4646194690361
 30
0.0
  0
VERTEX
  5
18F
  8
NONE
 10
193.7326019595939
 20
165.4881261062042
 30
0.0
  0
VERTEX
  5
190
  8
NONE
 10
193.5355610303904
 20
165.5011238938148
 30
0.0
  0
VERTEX
  5
191
  8
NONE
 10
194.1107822693285
 20
166.6670530973547
 30
0.0
  0
SEQEND
  5
A00
  8
NONE
  0
POLYLINE
  5
7B
  8
NONE
 66
     1
 10
0.0
 20
0.0
 30
0.0
 70
     1
  0
VERTEX
  5
192
  8
NONE
 10
196.0510477560541
 20
164.0962566371777
 30
0.0
  0
VERTEX
  5
193
  8
NONE
 10
196.1009647914524
 20
164.0917627212485
 30
0.0
  0
VERTEX
  5
194
  8
NONE
 10
196.1467335967621
 20
164.0782809734609
 30
0.0
  0
VERTEX
  5
195
  8
NONE
 10
196.1883541719833
 20
164.0558113938148
 30
0.0
  0
VERTEX
  5
196
  8
NONE
 10
196.2258265171161
 20
164.0243539823104
 30
0.0
  0
VERTEX
  5
197
  8
NONE
 10
196.2567999684435
 20
163.9865359513369
 30
0.0
  0
VERTEX
  5
198
  8
NONE
 10
196.2789238622488
 20
163.9449845132838
 30
0.0
  0
VERTEX
  5
199
  8
NONE
 10
196.292198198532
 20
163.8996996681511
 30
0.0
  0
VERTEX
  5
19A
  8
NONE
 10
196.2966229772931
 20
163.8506814159387
 30
0.0
  0
VERTEX
  5
19B
  8
NONE
 10
196.2921290613639
 20
163.8016631637263
 30
0.0
  0
VERTEX
  5
19C
  8
NONE
 10
196.2786473135762
 20
163.7563783185936
 30
0.0
  0
VERTEX
  5
19D
  8
NONE
 10
196.2561777339303
 20
163.7148268805405
 30
0.0
  0
VERTEX
  5
19E
  8
NONE
 10
196.2247203224258
 20
163.677008849567
 30
0.0
  0
VERTEX
  5
19F
  8
NONE
 10
196.1869022914523
 20
163.6455514380626
 30
0.0
  0
VERTEX
  5
1A0
  8
NONE
 10
196.1453508533992
 20
163.6230818584166
 30
0.0
  0
VERTEX
  5
1A1
  8
NONE
 10
196.1000660082665
 20
163.609600110629
 30
0.0
  0
VERTEX
  5
1A2
  8
NONE
 10
196.0510477560541
 20
163.6051061946998
 30
0.0
  0
VERTEX
  5
1A3
  8
NONE
 10
196.0020295038418
 20
163.609600110629
 30
0.0
  0
VERTEX
  5
1A4
  8
NONE
 10
195.956744658709
 20
163.6230818584166
 30
0.0
  0
VERTEX
  5
1A5
  8
NONE
 10
195.9151932206559
 20
163.6455514380626
 30
0.0
  0
VERTEX
  5
1A6
  8
NONE
 10
195.8773751896824
 20
163.677008849567
 30
0.0
  0
VERTEX
  5
1A7
  8
NONE
 10
195.845917778178
 20
163.7148268805405
 30
0.0
  0
VERTEX
  5
1A8
  8
NONE
 10
195.823448198532
 20
163.7563783185936
 30
0.0
  0
VERTEX
  5
1A9
  8
NONE
 10
195.8099664507444
 20
163.8016631637263
 30
0.0
  0
VERTEX
  5
1AA
  8
NONE
 10
195.8054725348152
 20
163.8506814159387
 30
0.0
  0
VERTEX
  5
1AB
  8
NONE
 10
195.8099664507444
 20
163.900598451337
 30
0.0
  0
VERTEX
  5
1AC
  8
NONE
 10
195.823448198532
 20
163.9463672566467
 30
0.0
  0
VERTEX
  5
1AD
  8
NONE
 10
195.845917778178
 20
163.9879878318679
 30
0.0
  0
VERTEX
  5
1AE
  8
NONE
 10
195.8773751896824
 20
164.0254601770007
 30
0.0
  0
VERTEX
  5
1AF
  8
NONE
 10
195.9151932206559
 20
164.0564336283281
 30
0.0
  0
VERTEX
  5
1B0
  8
NONE
 10
195.956744658709
 20
164.0785575221334
 30
0.0
  0
VERTEX
  5
1B1
  8
NONE
 10
196.0020295038418
 20
164.0918318584166
 30
0.0
  0
SEQEND
  5
A01
  8
NONE
  0
POLYLINE
  5
7C
  8
NONE
 66
     1
 10
0.0
 20
0.0
 30
0.0
 70
     1
  0
VERTEX
  5
1B2
  8
NONE
 10
196.7811362516293
 20
165.1493539823104
 30
0.0
  0
VERTEX
  5
1B3
  8
NONE
 10
196.7908154551692
 20
165.3970724557617
 30
0.0
  0
VERTEX
  5
1B4
  8
NONE
 10
196.8198530657886
 20
165.6269535398325
 30
0.0
  0
VERTEX
  5
1B5
  8
NONE
 10
196.8682490834877
 20
165.8389972345228
 30
0.0
  0
VERTEX
  5
1B6
  8
NONE
 10
196.9360035082665
 20
166.0332035398325
 30
0.0
  0
VERTEX
  5
1B7
  8
NONE
 10
197.0197977560541
 20
166.2066686946998
 30
0.0
  0
VERTEX
  5
1B8
  8
NONE
 10
197.1163132427798
 20
166.3564889380626
 30
0.0
  0
VERTEX
  5
1B9
  8
NONE
 10
197.2255499684435
 20
166.482664269921
 30
0.0
  0
VERTEX
  5
1BA
  8
NONE
 10
197.3475079330453
 20
166.585194690275
 30
0.0
  0
VERTEX
  5
1BB
  8
NONE
 10
197.4478951011868
 20
166.6481095132839
 30
0.0
  0
VERTEX
  5
1BC
  8
NONE
 10
197.5499415613638
 20
166.6930486725759
 30
0.0
  0
VERTEX
  5
1BD
  8
NONE
 10
197.6536473135762
 20
166.7200121681511
 30
0.0
  0
VERTEX
  5
1BE
  8
NONE
 10
197.759012357824
 20
166.7290000000095
 30
0.0
  0
VERTEX
  5
1BF
  8
NONE
 10
197.8441893489745
 20
166.7235035951423
 30
0.0
  0
VERTEX
  5
1C0
  8
NONE
 10
197.9271539507444
 20
166.7070143805405
 30
0.0
  0
VERTEX
  5
1C1
  8
NONE
 10
198.0079061631337
 20
166.6795323562042
 30
0.0
  0
VERTEX
  5
1C2
  8
NONE
 10
198.0864459861426
 20
166.6410575221334
 30
0.0
  0
VERTEX
  5
1C3
  8
NONE
 10
198.1627734197709
 20
166.5915898783281
 30
0.0
  0
VERTEX
  5
1C4
  8
NONE
 10
198.2368884640187
 20
166.5311294247883
 30
0.0
  0
VERTEX
  5
1C5
  8
NONE
 10
198.308791118886
 20
166.4596761615139
 30
0.0
  0
VERTEX
  5
1C6
  8
NONE
 10
198.3784813843727
 20
166.3772300885051
 30
0.0
  0
VERTEX
  5
1C7
  8
NONE
 10
198.4588533423373
 20
166.263430309744
 30
0.0
  0
VERTEX
  5
1C8
  8
NONE
 10
198.52850903924
 20
166.1399513274432
 30
0.0
  0
VERTEX
  5
1C9
  8
NONE
 10
198.5874484750807
 20
166.0067931416024
 30
0.0
  0
VERTEX
  5
1CA
  8
NONE
 10
198.6356716498594
 20
165.8639557522219
 30
0.0
  0
VERTEX
  5
1CB
  8
NONE
 10
198.6731785635762
 20
165.7114391593015
 30
0.0
  0
VERTEX
  5
1CC
  8
NONE
 10
198.6999692162311
 20
165.5492433628414
 30
0.0
  0
VERTEX
  5
1CD
  8
NONE
 10
198.716043607824
 20
165.3773683628414
 30
0.0
  0
VERTEX
  5
1CE
  8
NONE
 10
198.721401738355
 20
165.1958141593016
 30
0.0
  0
VERTEX
  5
1CF
  8
NONE
 10
198.7119990834877
 20
164.944569690275
 30
0.0
  0
VERTEX
  5
1D0
  8
NONE
 10
198.6837911188859
 20
164.7129601770007
 30
0.0
  0
VERTEX
  5
1D1
  8
NONE
 10
198.6367778445497
 20
164.5009856194786
 30
0.0
  0
VERTEX
  5
1D2
  8
NONE
 10
198.5709592604789
 20
164.3086460177086
 30
0.0
  0
VERTEX
  5
1D3
  8
NONE
 10
198.4905527339302
 20
164.1386377212484
 30
0.0
  0
VERTEX
  5
1D4
  8
NONE
 10
198.3997756321603
 20
163.9936570796555
 30
0.0
  0
VERTEX
  5
1D5
  8
NONE
 10
198.2986279551692
 20
163.8737040929299
 30
0.0
  0
VERTEX
  5
1D6
  8
NONE
 10
198.1871097029568
 20
163.7787787610715
 30
0.0
  0
VERTEX
  5
1D7
  8
NONE
 10
198.0714432206559
 20
163.7066686946998
 30
0.0
  0
VERTEX
  5
1D8
  8
NONE
 10
197.9578508533992
 20
163.6551615044343
 30
0.0
  0
VERTEX
  5
1D9
  8
NONE
 10
197.8463326011868
 20
163.624257190275
 30
0.0
  0
VERTEX
  5
1DA
  8
NONE
 10
197.7368884640187
 20
163.6139557522219
 30
0.0
  0
VERTEX
  5
1DB
  8
NONE
 10
197.6318345370275
 20
163.6218719579741
 30
0.0
  0
VERTEX
  5
1DC
  8
NONE
 10
197.5312745259656
 20
163.6456205752308
 30
0.0
  0
VERTEX
  5
1DD
  8
NONE
 10
197.4352084308329
 20
163.6852016039918
 30
0.0
  0
VERTEX
  5
1DE
  8
NONE
 10
197.3436362516293
 20
163.7406150442573
 30
0.0
  0
VERTEX
  5
1DF
  8
NONE
 10
197.256557988355
 20
163.8118608960272
 30
0.0
  0
VERTEX
  5
1E0
  8
NONE
 10
197.1739736410099
 20
163.8989391593016
 30
0.0
  0
VERTEX
  5
1E1
  8
NONE
 10
197.0958832095939
 20
164.0018498340803
 30
0.0
  0
VERTEX
  5
1E2
  8
NONE
 10
197.0222866941072
 20
164.1205929203635
 30
0.0
  0
VERTEX
  5
1E3
  8
NONE
 10
196.9657670591514
 20
164.2300716261157
 30
0.0
  0
VERTEX
  5
1E4
  8
NONE
 10
196.9167833755231
 20
164.3450121681511
 30
0.0
  0
VERTEX
  5
1E5
  8
NONE
 10
196.8753356432222
 20
164.4654145464697
 30
0.0
  0
VERTEX
  5
1E6
  8
NONE
 10
196.8414238622488
 20
164.5912787610715
 30
0.0
  0
VERTEX
  5
1E7
  8
NONE
 10
196.8150480326028
 20
164.7226048119564
 30
0.0
  0
VERTEX
  5
1E8
  8
NONE
 10
196.7962081542842
 20
164.8593926991246
 30
0.0
  0
VERTEX
  5
1E9
  8
NONE
 10
196.784904227293
 20
165.0016424225759
 30
0.0
  0
SEQEND
  5
A02
  8
NONE
  0
POLYLINE
  5
7D
  8
NONE
 66
     1
 10
0.0
 20
0.0
 30
0.0
 70
     1
  0
VERTEX
  5
1EA
  8
NONE
 10
197.2147645702134
 20
165.0940442477971
 30
0.0
  0
VERTEX
  5
1EB
  8
NONE
 10
197.2243054994169
 20
164.79855199116
 30
0.0
  0
VERTEX
  5
1EC
  8
NONE
 10
197.2529282870276
 20
164.5315442477971
 30
0.0
  0
VERTEX
  5
1ED
  8
NONE
 10
197.3006329330453
 20
164.2930210177086
 30
0.0
  0
VERTEX
  5
1EE
  8
NONE
 10
197.36741943747
 20
164.0829823008945
 30
0.0
  0
VERTEX
  5
1EF
  8
NONE
 10
197.4008818268505
 20
164.0057215154962
 30
0.0
  0
VERTEX
  5
1F0
  8
NONE
 10
197.438215897647
 20
163.9387621681511
 30
0.0
  0
VERTEX
  5
1F1
  8
NONE
 10
197.4794216498594
 20
163.8821042588591
 30
0.0
  0
VERTEX
  5
1F2
  8
NONE
 10
197.5244990834877
 20
163.8357477876201
 30
0.0
  0
VERTEX
  5
1F3
  8
NONE
 10
197.573448198532
 20
163.7996927544343
 30
0.0
  0
VERTEX
  5
1F4
  8
NONE
 10
197.6262689949922
 20
163.7739391593016
 30
0.0
  0
VERTEX
  5
1F5
  8
NONE
 10
197.6829614728683
 20
163.7584870022219
 30
0.0
  0
VERTEX
  5
1F6
  8
NONE
 10
197.7435256321603
 20
163.7533362831954
 30
0.0
  0
VERTEX
  5
1F7
  8
NONE
 10
197.8038132427798
 20
163.7600425885051
 30
0.0
  0
VERTEX
  5
1F8
  8
NONE
 10
197.8652070480895
 20
163.7801615044343
 30
0.0
  0
VERTEX
  5
1F9
  8
NONE
 10
197.9277070480895
 20
163.813693030983
 30
0.0
  0
VERTEX
  5
1FA
  8
NONE
 10
197.9913132427798
 20
163.8606371681511
 30
0.0
  0
VERTEX
  5
1FB
  8
NONE
 10
198.0516008533992
 20
163.9233445796556
 30
0.0
  0
VERTEX
  5
1FC
  8
NONE
 10
198.1041451011868
 20
164.0041659292131
 30
0.0
  0
VERTEX
  5
1FD
  8
NONE
 10
198.1489459861426
 20
164.1031012168237
 30
0.0
  0
VERTEX
  5
1FE
  8
NONE
 10
198.1860035082665
 20
164.2201504424874
 30
0.0
  0
VERTEX
  5
1FF
  8
NONE
 10
198.2305278445497
 20
164.429912610629
 30
0.0
  0
VERTEX
  5
200
  8
NONE
 10
198.2623309418948
 20
164.6786681416024
 30
0.0
  0
VERTEX
  5
201
  8
NONE
 10
198.2814128003019
 20
164.9664170354077
 30
0.0
  0
VERTEX
  5
202
  8
NONE
 10
198.2877734197709
 20
165.2931592920449
 30
0.0
  0
VERTEX
  5
203
  8
NONE
 10
198.2811362516293
 20
165.5391493362927
 30
0.0
  0
VERTEX
  5
204
  8
NONE
 10
198.2612247472046
 20
165.7638451327529
 30
0.0
  0
VERTEX
  5
205
  8
NONE
 10
198.2280389064966
 20
165.9672466814255
 30
0.0
  0
VERTEX
  5
206
  8
NONE
 10
198.1815787295054
 20
166.1493539823104
 30
0.0
  0
VERTEX
  5
207
  8
NONE
 10
198.1388519595939
 20
166.26730199116
 30
0.0
  0
VERTEX
  5
208
  8
NONE
 10
198.0903176675585
 20
166.3667212389476
 30
0.0
  0
VERTEX
  5
209
  8
NONE
 10
198.0359758533992
 20
166.4476117256733
 30
0.0
  0
VERTEX
  5
20A
  8
NONE
 10
197.975826517116
 20
166.5099734513369
 30
0.0
  0
VERTEX
  5
20B
  8
NONE
 10
197.9281218710984
 20
166.5419148230184
 30
0.0
  0
VERTEX
  5
20C
  8
NONE
 10
197.875715897647
 20
166.5647300885051
 30
0.0
  0
VERTEX
  5
20D
  8
NONE
 10
197.8186085967621
 20
166.5784192477971
 30
0.0
  0
VERTEX
  5
20E
  8
NONE
 10
197.7567999684435
 20
166.5829823008945
 30
0.0
  0
VERTEX
  5
20F
  8
NONE
 10
197.6836528445497
 20
166.5745475663812
 30
0.0
  0
VERTEX
  5
210
  8
NONE
 10
197.6146539507444
 20
166.5492433628414
 30
0.0
  0
VERTEX
  5
211
  8
NONE
 10
197.5498032870275
 20
166.507069690275
 30
0.0
  0
VERTEX
  5
212
  8
NONE
 10
197.4891008533992
 20
166.4480265486821
 30
0.0
  0
VERTEX
  5
213
  8
NONE
 10
197.4158154551691
 20
166.3430763274432
 30
0.0
  0
VERTEX
  5
214
  8
NONE
 10
197.3552512958771
 20
166.2118539823104
 30
0.0
  0
VERTEX
  5
215
  8
NONE
 10
197.3074083755232
 20
166.0543595132839
 30
0.0
  0
VERTEX
  5
216
  8
NONE
 10
197.2722866941072
 20
165.8705929203635
 30
0.0
  0
VERTEX
  5
217
  8
NONE
 10
197.2291451011868
 20
165.4795530973547
 30
0.0
  0
SEQEND
  5
A03
  8
NONE
  0
POLYLINE
  5
7E
  8
NONE
 66
     1
 10
0.0
 20
0.0
 30
0.0
  0
VERTEX
  5
218
  8
NONE
 10
194.8729504109214
 20
185.3020000000287
 30
0.0
  0
VERTEX
  5
219
  8
NONE
 10
194.8729504109214
 20
168.7290000000095
 30
0.0
  0
SEQEND
  5
A04
  8
NONE
  0
POLYLINE
  5
7F
  8
NONE
 66
     1
 10
0.0
 20
0.0
 30
0.0
  0
VERTEX
  5
21A
  8
NONE
 10
194.8729504109214
 20
161.6051061946998
 30
0.0
  0
VERTEX
  5
21B
  8
NONE
 10
194.8729504109214
 20
145.1559999999903
 30
0.0
  0
SEQEND
  5
A05
  8
NONE
  0
POLYLINE
  5
80
  8
NONE
 66
     1
 10
0.0
 20
0.0
 30
0.0
  0
VERTEX
  5
21C
  8
NONE
 10
146.1000000000231
 20
187.7290000000287
 30
0.0
  0
VERTEX
  5
21D
  8
NONE
 10
196.3729504109214
 20
187.7290000000287
 30
0.0
  0
SEQEND
  5
A06
  8
NONE
  0
POLYLINE
  5
81
  8
NONE
 66
     1
 10
0.0
 20
0.0
 30
0.0
  0
VERTEX
  5
21E
  8
NONE
 10
147.0999999999907
 20
142.7289999999903
 30
0.0
  0
VERTEX
  5
21F
  8
NONE
 10
196.3729504109214
 20
142.7289999999903
 30
0.0
  0
SEQEND
  5
A07
  8
NONE
  0
POLYLINE
  5
82
  8
NONE
 66
     1
 10
0.0
 20
0.0
 30
0.0
 70
     1
  0
VERTEX
  5
220
  8
NONE
 10
212.5414705727781
 20
266.3019999999993
 30
0.0
  0
VERTEX
  5
221
  8
NONE
 10
213.2914705727781
 20
268.7289999999994
 30
0.0
  0
VERTEX
  5
222
  8
NONE
 10
214.0414705727781
 20
266.3019999999993
 30
0.0
  0
SEQEND
  5
A08
  8
NONE
  0
POLYLINE
  5
83
  8
NONE
 66
     1
 10
0.0
 20
0.0
 30
0.0
 70
     1
  0
VERTEX
  5
223
  8
NONE
 10
214.0414705727781
 20
91.15599999999937
 30
0.0
  0
VERTEX
  5
224
  8
NONE
 10
213.2914705727781
 20
88.72899999999936
 30
0.0
  0
VERTEX
  5
225
  8
NONE
 10
212.5414705727781
 20
91.15599999999937
 30
0.0
  0
SEQEND
  5
A09
  8
NONE
  0
POLYLINE
  5
84
  8
NONE
 66
     1
 10
0.0
 20
0.0
 30
0.0
 70
     1
  0
VERTEX
  5
226
  8
NONE
 10
208.5403643780878
 20
179.8728053097338
 30
0.0
  0
VERTEX
  5
227
  8
NONE
 10
209.270452873663
 20
180.2289999999994
 30
0.0
  0
VERTEX
  5
228
  8
NONE
 10
209.3434617232205
 20
180.2289999999994
 30
0.0
  0
VERTEX
  5
229
  8
NONE
 10
209.3434617232205
 20
177.6958141592914
 30
0.0
  0
VERTEX
  5
22A
  8
NONE
 10
209.3487161479993
 20
177.4911681415923
 30
0.0
  0
VERTEX
  5
22B
  8
NONE
 10
209.3644794223356
 20
177.381654867256
 30
0.0
  0
VERTEX
  5
22C
  8
NONE
 10
209.3968356170259
 20
177.3268982300879
 30
0.0
  0
VERTEX
  5
22D
  8
NONE
 10
209.4518688028665
 20
177.2865221238931
 30
0.0
  0
VERTEX
  5
22E
  8
NONE
 10
209.4936276524241
 20
177.2717267699109
 30
0.0
  0
VERTEX
  5
22F
  8
NONE
 10
209.5525325196807
 20
177.2605265486719
 30
0.0
  0
VERTEX
  5
230
  8
NONE
 10
209.7217803072913
 20
177.2489115044241
 30
0.0
  0
VERTEX
  5
231
  8
NONE
 10
209.7217803072913
 20
177.1670530973445
 30
0.0
  0
VERTEX
  5
232
  8
NONE
 10
208.5934617232205
 20
177.1670530973445
 30
0.0
  0
VERTEX
  5
233
  8
NONE
 10
208.5934617232205
 20
177.2489115044241
 30
0.0
  0
VERTEX
  5
234
  8
NONE
 10
208.7682404842825
 20
177.2602499999994
 30
0.0
  0
VERTEX
  5
235
  8
NONE
 10
208.8274219002117
 20
177.2711045353976
 30
0.0
  0
VERTEX
  5
236
  8
NONE
 10
208.8677980064064
 20
177.2854159292029
 30
0.0
  0
VERTEX
  5
237
  8
NONE
 10
208.920342254194
 20
177.3230265486719
 30
0.0
  0
VERTEX
  5
238
  8
NONE
 10
208.9540811922471
 20
177.3716991150436
 30
0.0
  0
VERTEX
  5
239
  8
NONE
 10
208.9723334046365
 20
177.479829646017
 30
0.0
  0
VERTEX
  5
23A
  8
NONE
 10
208.9784174754329
 20
177.6958141592914
 30
0.0
  0
VERTEX
  5
23B
  8
NONE
 10
208.9784174754329
 20
179.3152831858401
 30
0.0
  0
VERTEX
  5
23C
  8
NONE
 10
208.9728865019816
 20
179.5840884955745
 30
0.0
  0
VERTEX
  5
23D
  8
NONE
 10
208.9562935816276
 20
179.7356371681409
 30
0.0
  0
VERTEX
  5
23E
  8
NONE
 10
208.9344462364949
 20
179.7970309734507
 30
0.0
  0
VERTEX
  5
23F
  8
NONE
 10
208.8998776524241
 20
179.8396194690259
 30
0.0
  0
VERTEX
  5
240
  8
NONE
 10
208.8548002187957
 20
179.8645088495569
 30
0.0
  0
VERTEX
  5
241
  8
NONE
 10
208.8014263249904
 20
179.8728053097338
 30
0.0
  0
VERTEX
  5
242
  8
NONE
 10
208.7035280949019
 20
179.8556592920347
 30
0.0
  0
VERTEX
  5
243
  8
NONE
 10
208.5735502187957
 20
179.8042212389374
 30
0.0
  0
SEQEND
  5
A0A
  8
NONE
  0
POLYLINE
  5
85
  8
NONE
 66
     1
 10
0.0
 20
0.0
 30
0.0
 70
     1
  0
VERTEX
  5
244
  8
NONE
 10
211.1443466789727
 20
178.6781150442471
 30
0.0
  0
VERTEX
  5
245
  8
NONE
 10
210.9820817453444
 20
178.8169424778754
 30
0.0
  0
VERTEX
  5
246
  8
NONE
 10
210.851481634725
 20
178.9413893805303
 30
0.0
  0
VERTEX
  5
247
  8
NONE
 10
210.7525463471143
 20
179.0514557522117
 30
0.0
  0
VERTEX
  5
248
  8
NONE
 10
210.6852758825126
 20
179.1471415929197
 30
0.0
  0
VERTEX
  5
249
  8
NONE
 10
210.6402675860524
 20
179.2364668141586
 30
0.0
  0
VERTEX
  5
24A
  8
NONE
 10
210.6081188028666
 20
179.327451327433
 30
0.0
  0
VERTEX
  5
24B
  8
NONE
 10
210.5888295329551
 20
179.4200951327427
 30
0.0
  0
VERTEX
  5
24C
  8
NONE
 10
210.5823997763179
 20
179.5143982300878
 30
0.0
  0
VERTEX
  5
24D
  8
NONE
 10
210.5965037586188
 20
179.6553689159286
 30
0.0
  0
VERTEX
  5
24E
  8
NONE
 10
210.6388157055214
 20
179.7862455752206
 30
0.0
  0
VERTEX
  5
24F
  8
NONE
 10
210.7093356170258
 20
179.9070282079639
 30
0.0
  0
VERTEX
  5
250
  8
NONE
 10
210.808063493132
 20
180.0177168141586
 30
0.0
  0
VERTEX
  5
251
  8
NONE
 10
210.8667955174683
 20
180.0672363108401
 30
0.0
  0
VERTEX
  5
252
  8
NONE
 10
210.9301597320701
 20
180.1101532079639
 30
0.0
  0
VERTEX
  5
253
  8
NONE
 10
210.9981561369374
 20
180.1464675055303
 30
0.0
  0
VERTEX
  5
254
  8
NONE
 10
211.0707847320701
 20
180.1761792035392
 30
0.0
  0
VERTEX
  5
255
  8
NONE
 10
211.1480455174683
 20
180.1992883019905
 30
0.0
  0
VERTEX
  5
256
  8
NONE
 10
211.229938493132
 20
180.2157948008843
 30
0.0
  0
VERTEX
  5
257
  8
NONE
 10
211.4076210152559
 20
180.2289999999994
 30
0.0
  0
VERTEX
  5
258
  8
NONE
 10
211.5801873869374
 20
180.2166935840701
 30
0.0
  0
VERTEX
  5
259
  8
NONE
 10
211.7350546435745
 20
180.1797743362825
 30
0.0
  0
VERTEX
  5
25A
  8
NONE
 10
211.8722227851674
 20
180.1182422566365
 30
0.0
  0
VERTEX
  5
25B
  8
NONE
 10
211.9341696878223
 20
180.0782464048666
 30
0.0
  0
VERTEX
  5
25C
  8
NONE
 10
211.9916918117161
 20
180.0320973451321
 30
0.0
  0
VERTEX
  5
25D
  8
NONE
 10
212.0884838471144
 20
179.9301891592914
 30
0.0
  0
VERTEX
  5
25E
  8
NONE
 10
212.157621015256
 20
179.8213672566365
 30
0.0
  0
VERTEX
  5
25F
  8
NONE
 10
212.1991033161409
 20
179.7056316371675
 30
0.0
  0
VERTEX
  5
260
  8
NONE
 10
212.2129307497692
 20
179.5829823008843
 30
0.0
  0
VERTEX
  5
261
  8
NONE
 10
212.2054639356099
 20
179.4984966814153
 30
0.0
  0
VERTEX
  5
262
  8
NONE
 10
212.183063493132
 20
179.4131814159286
 30
0.0
  0
VERTEX
  5
263
  8
NONE
 10
212.1457294223356
 20
179.3270365044241
 30
0.0
  0
VERTEX
  5
264
  8
NONE
 10
212.0934617232205
 20
179.240061946902
 30
0.0
  0
VERTEX
  5
265
  8
NONE
 10
212.0175491126011
 20
179.1488008849551
 30
0.0
  0
VERTEX
  5
266
  8
NONE
 10
211.9092803072913
 20
179.0497964601763
 30
0.0
  0
VERTEX
  5
267
  8
NONE
 10
211.7686553072913
 20
178.9430486725657
 30
0.0
  0
VERTEX
  5
268
  8
NONE
 10
211.5956741126011
 20
178.8285575221232
 30
0.0
  0
VERTEX
  5
269
  8
NONE
 10
211.7739097320701
 20
178.6861349557515
 30
0.0
  0
VERTEX
  5
26A
  8
NONE
 10
211.9192360595037
 20
178.5597522123887
 30
0.0
  0
VERTEX
  5
26B
  8
NONE
 10
212.0316530949019
 20
178.4494092920347
 30
0.0
  0
VERTEX
  5
26C
  8
NONE
 10
212.1111608382648
 20
178.3551061946896
 30
0.0
  0
VERTEX
  5
26D
  8
NONE
 10
212.1847227851674
 20
178.2407533185834
 30
0.0
  0
VERTEX
  5
26E
  8
NONE
 10
212.237267032955
 20
178.123358407079
 30
0.0
  0
VERTEX
  5
26F
  8
NONE
 10
212.2687935816276
 20
178.0029214601764
 30
0.0
  0
VERTEX
  5
270
  8
NONE
 10
212.2793024311851
 20
177.8794424778754
 30
0.0
  0
VERTEX
  5
271
  8
NONE
 10
212.2755344555214
 20
177.8017841537604
 30
0.0
  0
VERTEX
  5
272
  8
NONE
 10
212.2642305285302
 20
177.7269950221232
 30
0.0
  0
VERTEX
  5
273
  8
NONE
 10
212.2453906502117
 20
177.6550750829639
 30
0.0
  0
VERTEX
  5
274
  8
NONE
 10
212.2190148205657
 20
177.5860243362825
 30
0.0
  0
VERTEX
  5
275
  8
NONE
 10
212.1851030395922
 20
177.519842782079
 30
0.0
  0
VERTEX
  5
276
  8
NONE
 10
212.1436553072913
 20
177.4565304203533
 30
0.0
  0
VERTEX
  5
277
  8
NONE
 10
212.094671623663
 20
177.3960872511055
 30
0.0
  0
VERTEX
  5
278
  8
NONE
 10
212.0381519887073
 20
177.3385132743356
 30
0.0
  0
VERTEX
  5
279
  8
NONE
 10
211.975513714371
 20
177.2858826050879
 30
0.0
  0
VERTEX
  5
27A
  8
NONE
 10
211.908174112601
 20
177.2402693584064
 30
0.0
  0
VERTEX
  5
27B
  8
NONE
 10
211.8361331833975
 20
177.2016735342914
 30
0.0
  0
VERTEX
  5
27C
  8
NONE
 10
211.7593909267603
 20
177.1700951327427
 30
0.0
  0
VERTEX
  5
27D
  8
NONE
 10
211.6779473426896
 20
177.1455341537604
 30
0.0
  0
VERTEX
  5
27E
  8
NONE
 10
211.5918024311851
 20
177.1279905973445
 30
0.0
  0
VERTEX
  5
27F
  8
NONE
 10
211.4054086258754
 20
177.1139557522117
 30
0.0
  0
VERTEX
  5
280
  8
NONE
 10
211.3015991679108
 20
177.1181385508843
 30
0.0
  0
VERTEX
  5
281
  8
NONE
 10
211.2036663692382
 20
177.130686946902
 30
0.0
  0
VERTEX
  5
282
  8
NONE
 10
211.1116102298577
 20
177.1516009402648
 30
0.0
  0
VERTEX
  5
283
  8
NONE
 10
211.0254307497692
 20
177.1808805309728
 30
0.0
  0
VERTEX
  5
284
  8
NONE
 10
210.9451279289727
 20
177.2185257190259
 30
0.0
  0
VERTEX
  5
285
  8
NONE
 10
210.8707017674683
 20
177.2645365044241
 30
0.0
  0
VERTEX
  5
286
  8
NONE
 10
210.8021522652559
 20
177.3189128871675
 30
0.0
  0
VERTEX
  5
287
  8
NONE
 10
210.7394794223356
 20
177.381654867256
 30
0.0
  0
VERTEX
  5
288
  8
NONE
 10
210.6562382718931
 20
177.4914446902648
 30
0.0
  0
VERTEX
  5
289
  8
NONE
 10
210.5967803072913
 20
177.6062123893799
 30
0.0
  0
VERTEX
  5
28A
  8
NONE
 10
210.5611055285303
 20
177.7259579646011
 30
0.0
  0
VERTEX
  5
28B
  8
NONE
 10
210.5492139356099
 20
177.8506814159286
 30
0.0
  0
VERTEX
  5
28C
  8
NONE
 10
210.557579532955
 20
177.950031526548
 30
0.0
  0
VERTEX
  5
28D
  8
NONE
 10
210.5826763249904
 20
178.0489668141586
 30
0.0
  0
VERTEX
  5
28E
  8
NONE
 10
210.6245043117161
 20
178.1474872787604
 30
0.0
  0
VERTEX
  5
28F
  8
NONE
 10
210.683063493132
 20
178.2455929203533
 30
0.0
  0
VERTEX
  5
290
  8
NONE
 10
210.7620872763179
 20
178.3460492256631
 30
0.0
  0
VERTEX
  5
291
  8
NONE
 10
210.8653090683533
 20
178.4516216814153
 30
0.0
  0
VERTEX
  5
292
  8
NONE
 10
210.9927288692382
 20
178.56231028761
 30
0.0
  0
SEQEND
  5
A0B
  8
NONE
  0
POLYLINE
  5
86
  8
NONE
 66
     1
 10
0.0
 20
0.0
 30
0.0
 70
     1
  0
VERTEX
  5
293
  8
NONE
 10
211.4916918117161
 20
178.9148407079639
 30
0.0
  0
VERTEX
  5
294
  8
NONE
 10
211.612267032955
 20
179.0280182522118
 30
0.0
  0
VERTEX
  5
295
  8
NONE
 10
211.7085059710082
 20
179.1286128318578
 30
0.0
  0
VERTEX
  5
296
  8
NONE
 10
211.7804086258754
 20
179.216624446902
 30
0.0
  0
VERTEX
  5
297
  8
NONE
 10
211.8279749975568
 20
179.2920530973445
 30
0.0
  0
VERTEX
  5
298
  8
NONE
 10
211.8589484488842
 20
179.3634717920348
 30
0.0
  0
VERTEX
  5
299
  8
NONE
 10
211.8810723426895
 20
179.4394535398224
 30
0.0
  0
VERTEX
  5
29A
  8
NONE
 10
211.8943466789727
 20
179.5199983407073
 30
0.0
  0
VERTEX
  5
29B
  8
NONE
 10
211.8987714577338
 20
179.6051061946896
 30
0.0
  0
VERTEX
  5
29C
  8
NONE
 10
211.8906132718931
 20
179.7149651548666
 30
0.0
  0
VERTEX
  5
29D
  8
NONE
 10
211.8661387143709
 20
179.8122411504418
 30
0.0
  0
VERTEX
  5
29E
  8
NONE
 10
211.8253477851674
 20
179.8969341814153
 30
0.0
  0
VERTEX
  5
29F
  8
NONE
 10
211.7682404842825
 20
179.969044247787
 30
0.0
  0
VERTEX
  5
2A0
  8
NONE
 10
211.6970292010966
 20
180.0266355088489
 30
0.0
  0
VERTEX
  5
2A1
  8
NONE
 10
211.6139263249904
 20
180.0677721238932
 30
0.0
  0
VERTEX
  5
2A2
  8
NONE
 10
211.5189318559639
 20
180.0924540929197
 30
0.0
  0
VERTEX
  5
2A3
  8
NONE
 10
211.412045794017
 20
180.1006814159286
 30
0.0
  0
VERTEX
  5
2A4
  8
NONE
 10
211.3044683603887
 20
180.0925232300879
 30
0.0
  0
VERTEX
  5
2A5
  8
NONE
 10
211.2073997763179
 20
180.0680486725657
 30
0.0
  0
VERTEX
  5
2A6
  8
NONE
 10
211.1208400418046
 20
180.0272577433622
 30
0.0
  0
VERTEX
  5
2A7
  8
NONE
 10
211.0447891568489
 20
179.9701504424772
 30
0.0
  0
VERTEX
  5
2A8
  8
NONE
 10
210.982842254194
 20
179.9021194690259
 30
0.0
  0
VERTEX
  5
2A9
  8
NONE
 10
210.9385944665833
 20
179.8285575221232
 30
0.0
  0
VERTEX
  5
2AA
  8
NONE
 10
210.912045794017
 20
179.7494646017693
 30
0.0
  0
VERTEX
  5
2AB
  8
NONE
 10
210.9031962364949
 20
179.6648407079639
 30
0.0
  0
VERTEX
  5
2AC
  8
NONE
 10
210.9178533161409
 20
179.5497964601763
 30
0.0
  0
VERTEX
  5
2AD
  8
NONE
 10
210.9618245550789
 20
179.4347522123887
 30
0.0
  0
VERTEX
  5
2AE
  8
NONE
 10
211.0328975639285
 20
179.3224734513268
 30
0.0
  0
VERTEX
  5
2AF
  8
NONE
 10
211.128859953309
 20
179.2157256637162
 30
0.0
  0
SEQEND
  5
A0C
  8
NONE
  0
POLYLINE
  5
87
  8
NONE
 66
     1
 10
0.0
 20
0.0
 30
0.0
 70
     1
  0
VERTEX
  5
2B0
  8
NONE
 10
211.2483289798577
 20
178.594044247787
 30
0.0
  0
VERTEX
  5
2B1
  8
NONE
 10
211.1624606170258
 20
178.5148821902648
 30
0.0
  0
VERTEX
  5
2B2
  8
NONE
 10
211.0884838471143
 20
178.4322632743356
 30
0.0
  0
VERTEX
  5
2B3
  8
NONE
 10
211.0263986701232
 20
178.3461874999993
 30
0.0
  0
VERTEX
  5
2B4
  8
NONE
 10
210.9762050860524
 20
178.256654867256
 30
0.0
  0
VERTEX
  5
2B5
  8
NONE
 10
210.9374882718931
 20
178.1635271017693
 30
0.0
  0
VERTEX
  5
2B6
  8
NONE
 10
210.9098334046365
 20
178.0666659292029
 30
0.0
  0
VERTEX
  5
2B7
  8
NONE
 10
210.8932404842825
 20
177.9660713495568
 30
0.0
  0
VERTEX
  5
2B8
  8
NONE
 10
210.8877095108311
 20
177.8617433628312
 30
0.0
  0
VERTEX
  5
2B9
  8
NONE
 10
210.8974578515391
 20
177.7261653761055
 30
0.0
  0
VERTEX
  5
2BA
  8
NONE
 10
210.926702873663
 20
177.604829646017
 30
0.0
  0
VERTEX
  5
2BB
  8
NONE
 10
210.9754445772028
 20
177.4977361725657
 30
0.0
  0
VERTEX
  5
2BC
  8
NONE
 10
211.0436829621586
 20
177.4048849557516
 30
0.0
  0
VERTEX
  5
2BD
  8
NONE
 10
211.1269932497692
 20
177.3298711283179
 30
0.0
  0
VERTEX
  5
2BE
  8
NONE
 10
211.2209506612736
 20
177.2762898230082
 30
0.0
  0
VERTEX
  5
2BF
  8
NONE
 10
211.3255551966718
 20
177.2441410398224
 30
0.0
  0
VERTEX
  5
2C0
  8
NONE
 10
211.4408068559639
 20
177.2334247787604
 30
0.0
  0
VERTEX
  5
2C1
  8
NONE
 10
211.5543300860524
 20
177.2418595132737
 30
0.0
  0
VERTEX
  5
2C2
  8
NONE
 10
211.6559617232205
 20
177.2671637168135
 30
0.0
  0
VERTEX
  5
2C3
  8
NONE
 10
211.7457017674683
 20
177.3093373893799
 30
0.0
  0
VERTEX
  5
2C4
  8
NONE
 10
211.8235502187958
 20
177.3683805309728
 30
0.0
  0
VERTEX
  5
2C5
  8
NONE
 10
211.8864650418046
 20
177.4394535398224
 30
0.0
  0
VERTEX
  5
2C6
  8
NONE
 10
211.9314042010967
 20
177.5177168141586
 30
0.0
  0
VERTEX
  5
2C7
  8
NONE
 10
211.9583676966719
 20
177.6031703539817
 30
0.0
  0
VERTEX
  5
2C8
  8
NONE
 10
211.9673555285303
 20
177.6958141592914
 30
0.0
  0
VERTEX
  5
2C9
  8
NONE
 10
211.9621011037515
 20
177.7733860619463
 30
0.0
  0
VERTEX
  5
2CA
  8
NONE
 10
211.9463378294152
 20
177.8468097345126
 30
0.0
  0
VERTEX
  5
2CB
  8
NONE
 10
211.9200657055214
 20
177.9160851769905
 30
0.0
  0
VERTEX
  5
2CC
  8
NONE
 10
211.8832847320701
 20
177.9812123893799
 30
0.0
  0
VERTEX
  5
2CD
  8
NONE
 10
211.7846951303002
 20
178.1074568584064
 30
0.0
  0
VERTEX
  5
2CE
  8
NONE
 10
211.6460059710082
 20
178.2516769911498
 30
0.0
  0
VERTEX
  5
2CF
  8
NONE
 10
211.467217254194
 20
178.41387278761
 30
0.0
  0
SEQEND
  5
A0D
  8
NONE
  0
POLYLINE
  5
88
  8
NONE
 66
     1
 10
0.0
 20
0.0
 30
0.0
 70
     1
  0
VERTEX
  5
2D0
  8
NONE
 10
212.7040811922471
 20
178.6493539823002
 30
0.0
  0
VERTEX
  5
2D1
  8
NONE
 10
212.7137603957869
 20
178.8970724557516
 30
0.0
  0
VERTEX
  5
2D2
  8
NONE
 10
212.7427980064064
 20
179.1269535398224
 30
0.0
  0
VERTEX
  5
2D3
  8
NONE
 10
212.7911940241055
 20
179.3389972345126
 30
0.0
  0
VERTEX
  5
2D4
  8
NONE
 10
212.8589484488843
 20
179.5332035398224
 30
0.0
  0
VERTEX
  5
2D5
  8
NONE
 10
212.9427426966719
 20
179.7066686946896
 30
0.0
  0
VERTEX
  5
2D6
  8
NONE
 10
213.0392581833975
 20
179.8564889380525
 30
0.0
  0
VERTEX
  5
2D7
  8
NONE
 10
213.1484949090612
 20
179.9826642699109
 30
0.0
  0
VERTEX
  5
2D8
  8
NONE
 10
213.270452873663
 20
180.0851946902648
 30
0.0
  0
VERTEX
  5
2D9
  8
NONE
 10
213.3708400418046
 20
180.1481095132737
 30
0.0
  0
VERTEX
  5
2DA
  8
NONE
 10
213.4728865019816
 20
180.1930486725657
 30
0.0
  0
VERTEX
  5
2DB
  8
NONE
 10
213.576592254194
 20
180.220012168141
 30
0.0
  0
VERTEX
  5
2DC
  8
NONE
 10
213.6819572984418
 20
180.2289999999994
 30
0.0
  0
VERTEX
  5
2DD
  8
NONE
 10
213.7671342895922
 20
180.2235035951321
 30
0.0
  0
VERTEX
  5
2DE
  8
NONE
 10
213.8500988913621
 20
180.2070143805304
 30
0.0
  0
VERTEX
  5
2DF
  8
NONE
 10
213.9308511037515
 20
180.1795323561941
 30
0.0
  0
VERTEX
  5
2E0
  8
NONE
 10
214.0093909267603
 20
180.1410575221232
 30
0.0
  0
VERTEX
  5
2E1
  8
NONE
 10
214.0857183603887
 20
180.0915898783179
 30
0.0
  0
VERTEX
  5
2E2
  8
NONE
 10
214.1598334046365
 20
180.0311294247781
 30
0.0
  0
VERTEX
  5
2E3
  8
NONE
 10
214.2317360595037
 20
179.9596761615038
 30
0.0
  0
VERTEX
  5
2E4
  8
NONE
 10
214.3014263249904
 20
179.8772300884949
 30
0.0
  0
VERTEX
  5
2E5
  8
NONE
 10
214.3817982829551
 20
179.7634303097338
 30
0.0
  0
VERTEX
  5
2E6
  8
NONE
 10
214.4514539798577
 20
179.639951327433
 30
0.0
  0
VERTEX
  5
2E7
  8
NONE
 10
214.5103934156984
 20
179.5067931415923
 30
0.0
  0
VERTEX
  5
2E8
  8
NONE
 10
214.5586165904772
 20
179.3639557522117
 30
0.0
  0
VERTEX
  5
2E9
  8
NONE
 10
214.596123504194
 20
179.2114391592914
 30
0.0
  0
VERTEX
  5
2EA
  8
NONE
 10
214.6229141568489
 20
179.0492433628312
 30
0.0
  0
VERTEX
  5
2EB
  8
NONE
 10
214.6389885484418
 20
178.8773683628312
 30
0.0
  0
VERTEX
  5
2EC
  8
NONE
 10
214.6443466789727
 20
178.6958141592914
 30
0.0
  0
VERTEX
  5
2ED
  8
NONE
 10
214.6349440241055
 20
178.4445696902648
 30
0.0
  0
VERTEX
  5
2EE
  8
NONE
 10
214.6067360595037
 20
178.2129601769905
 30
0.0
  0
VERTEX
  5
2EF
  8
NONE
 10
214.5597227851674
 20
178.0009856194684
 30
0.0
  0
VERTEX
  5
2F0
  8
NONE
 10
214.4939042010966
 20
177.8086460176985
 30
0.0
  0
VERTEX
  5
2F1
  8
NONE
 10
214.413497674548
 20
177.6386377212383
 30
0.0
  0
VERTEX
  5
2F2
  8
NONE
 10
214.3227205727781
 20
177.4936570796454
 30
0.0
  0
VERTEX
  5
2F3
  8
NONE
 10
214.2215728957869
 20
177.3737040929197
 30
0.0
  0
VERTEX
  5
2F4
  8
NONE
 10
214.1100546435745
 20
177.2787787610613
 30
0.0
  0
VERTEX
  5
2F5
  8
NONE
 10
213.9943881612737
 20
177.2066686946896
 30
0.0
  0
VERTEX
  5
2F6
  8
NONE
 10
213.880795794017
 20
177.1551615044241
 30
0.0
  0
VERTEX
  5
2F7
  8
NONE
 10
213.7692775418046
 20
177.1242571902648
 30
0.0
  0
VERTEX
  5
2F8
  8
NONE
 10
213.6598334046365
 20
177.1139557522117
 30
0.0
  0
VERTEX
  5
2F9
  8
NONE
 10
213.5547794776453
 20
177.1218719579639
 30
0.0
  0
VERTEX
  5
2FA
  8
NONE
 10
213.4542194665834
 20
177.1456205752206
 30
0.0
  0
VERTEX
  5
2FB
  8
NONE
 10
213.3581533714506
 20
177.1852016039817
 30
0.0
  0
VERTEX
  5
2FC
  8
NONE
 10
213.2665811922471
 20
177.2406150442471
 30
0.0
  0
VERTEX
  5
2FD
  8
NONE
 10
213.1795029289727
 20
177.311860896017
 30
0.0
  0
VERTEX
  5
2FE
  8
NONE
 10
213.0969185816276
 20
177.3989391592914
 30
0.0
  0
VERTEX
  5
2FF
  8
NONE
 10
213.0188281502117
 20
177.5018498340701
 30
0.0
  0
VERTEX
  5
300
  8
NONE
 10
212.945231634725
 20
177.6205929203533
 30
0.0
  0
VERTEX
  5
301
  8
NONE
 10
212.8887119997692
 20
177.7300716261055
 30
0.0
  0
VERTEX
  5
302
  8
NONE
 10
212.8397283161409
 20
177.845012168141
 30
0.0
  0
VERTEX
  5
303
  8
NONE
 10
212.79828058384
 20
177.9654145464596
 30
0.0
  0
VERTEX
  5
304
  8
NONE
 10
212.7643688028666
 20
178.0912787610613
 30
0.0
  0
VERTEX
  5
305
  8
NONE
 10
212.7379929732205
 20
178.2226048119462
 30
0.0
  0
VERTEX
  5
306
  8
NONE
 10
212.7191530949019
 20
178.3593926991144
 30
0.0
  0
VERTEX
  5
307
  8
NONE
 10
212.7078491679108
 20
178.5016424225657
 30
0.0
  0
SEQEND
  5
A0E
  8
NONE
  0
POLYLINE
  5
89
  8
NONE
 66
     1
 10
0.0
 20
0.0
 30
0.0
 70
     1
  0
VERTEX
  5
308
  8
NONE
 10
213.1377095108311
 20
178.594044247787
 30
0.0
  0
VERTEX
  5
309
  8
NONE
 10
213.1472504400347
 20
178.2985519911498
 30
0.0
  0
VERTEX
  5
30A
  8
NONE
 10
213.1758732276453
 20
178.031544247787
 30
0.0
  0
VERTEX
  5
30B
  8
NONE
 10
213.223577873663
 20
177.7930210176985
 30
0.0
  0
VERTEX
  5
30C
  8
NONE
 10
213.2903643780878
 20
177.5829823008843
 30
0.0
  0
VERTEX
  5
30D
  8
NONE
 10
213.3238267674683
 20
177.5057215154861
 30
0.0
  0
VERTEX
  5
30E
  8
NONE
 10
213.3611608382648
 20
177.4387621681409
 30
0.0
  0
VERTEX
  5
30F
  8
NONE
 10
213.4023665904772
 20
177.3821042588489
 30
0.0
  0
VERTEX
  5
310
  8
NONE
 10
213.4474440241055
 20
177.33574778761
 30
0.0
  0
VERTEX
  5
311
  8
NONE
 10
213.4963931391497
 20
177.2996927544241
 30
0.0
  0
VERTEX
  5
312
  8
NONE
 10
213.5492139356099
 20
177.2739391592914
 30
0.0
  0
VERTEX
  5
313
  8
NONE
 10
213.605906413486
 20
177.2584870022117
 30
0.0
  0
VERTEX
  5
314
  8
NONE
 10
213.6664705727781
 20
177.2533362831852
 30
0.0
  0
VERTEX
  5
315
  8
NONE
 10
213.7267581833975
 20
177.2600425884949
 30
0.0
  0
VERTEX
  5
316
  8
NONE
 10
213.7881519887073
 20
177.2801615044241
 30
0.0
  0
VERTEX
  5
317
  8
NONE
 10
213.8506519887073
 20
177.3136930309728
 30
0.0
  0
VERTEX
  5
318
  8
NONE
 10
213.9142581833975
 20
177.3606371681409
 30
0.0
  0
VERTEX
  5
319
  8
NONE
 10
213.974545794017
 20
177.4233445796454
 30
0.0
  0
VERTEX
  5
31A
  8
NONE
 10
214.0270900418046
 20
177.5041659292029
 30
0.0
  0
VERTEX
  5
31B
  8
NONE
 10
214.0718909267604
 20
177.6031012168135
 30
0.0
  0
VERTEX
  5
31C
  8
NONE
 10
214.1089484488843
 20
177.7201504424772
 30
0.0
  0
VERTEX
  5
31D
  8
NONE
 10
214.1534727851674
 20
177.9299126106188
 30
0.0
  0
VERTEX
  5
31E
  8
NONE
 10
214.1852758825126
 20
178.1786681415923
 30
0.0
  0
VERTEX
  5
31F
  8
NONE
 10
214.2043577409196
 20
178.4664170353976
 30
0.0
  0
VERTEX
  5
320
  8
NONE
 10
214.2107183603887
 20
178.7931592920347
 30
0.0
  0
VERTEX
  5
321
  8
NONE
 10
214.2040811922471
 20
179.0391493362825
 30
0.0
  0
VERTEX
  5
322
  8
NONE
 10
214.1841696878223
 20
179.2638451327427
 30
0.0
  0
VERTEX
  5
323
  8
NONE
 10
214.1509838471143
 20
179.4672466814153
 30
0.0
  0
VERTEX
  5
324
  8
NONE
 10
214.1045236701232
 20
179.6493539823002
 30
0.0
  0
VERTEX
  5
325
  8
NONE
 10
214.0617969002117
 20
179.7673019911498
 30
0.0
  0
VERTEX
  5
326
  8
NONE
 10
214.0132626081763
 20
179.8667212389374
 30
0.0
  0
VERTEX
  5
327
  8
NONE
 10
213.958920794017
 20
179.9476117256631
 30
0.0
  0
VERTEX
  5
328
  8
NONE
 10
213.8987714577338
 20
180.0099734513268
 30
0.0
  0
VERTEX
  5
329
  8
NONE
 10
213.8510668117161
 20
180.0419148230082
 30
0.0
  0
VERTEX
  5
32A
  8
NONE
 10
213.7986608382648
 20
180.0647300884949
 30
0.0
  0
VERTEX
  5
32B
  8
NONE
 10
213.7415535373798
 20
180.078419247787
 30
0.0
  0
VERTEX
  5
32C
  8
NONE
 10
213.6797449090612
 20
180.0829823008843
 30
0.0
  0
VERTEX
  5
32D
  8
NONE
 10
213.6065977851674
 20
180.074547566371
 30
0.0
  0
VERTEX
  5
32E
  8
NONE
 10
213.5375988913621
 20
180.0492433628312
 30
0.0
  0
VERTEX
  5
32F
  8
NONE
 10
213.4727482276453
 20
180.0070696902648
 30
0.0
  0
VERTEX
  5
330
  8
NONE
 10
213.412045794017
 20
179.9480265486719
 30
0.0
  0
VERTEX
  5
331
  8
NONE
 10
213.3387603957869
 20
179.843076327433
 30
0.0
  0
VERTEX
  5
332
  8
NONE
 10
213.2781962364949
 20
179.7118539823002
 30
0.0
  0
VERTEX
  5
333
  8
NONE
 10
213.2303533161409
 20
179.5543595132737
 30
0.0
  0
VERTEX
  5
334
  8
NONE
 10
213.195231634725
 20
179.3705929203533
 30
0.0
  0
VERTEX
  5
335
  8
NONE
 10
213.1520900418046
 20
178.9795530973445
 30
0.0
  0
SEQEND
  5
A0F
  8
NONE
  0
POLYLINE
  5
8A
  8
NONE
 66
     1
 10
0.0
 20
0.0
 30
0.0
 70
     1
  0
VERTEX
  5
336
  8
NONE
 10
215.3722227851674
 20
177.5962566371675
 30
0.0
  0
VERTEX
  5
337
  8
NONE
 10
215.4221398205657
 20
177.5917627212383
 30
0.0
  0
VERTEX
  5
338
  8
NONE
 10
215.4679086258754
 20
177.5782809734507
 30
0.0
  0
VERTEX
  5
339
  8
NONE
 10
215.5095292010967
 20
177.5558113938047
 30
0.0
  0
VERTEX
  5
33A
  8
NONE
 10
215.5470015462294
 20
177.5243539823002
 30
0.0
  0
VERTEX
  5
33B
  8
NONE
 10
215.5779749975568
 20
177.4865359513267
 30
0.0
  0
VERTEX
  5
33C
  8
NONE
 10
215.6000988913621
 20
177.4449845132737
 30
0.0
  0
VERTEX
  5
33D
  8
NONE
 10
215.6133732276453
 20
177.399699668141
 30
0.0
  0
VERTEX
  5
33E
  8
NONE
 10
215.6177980064064
 20
177.3506814159286
 30
0.0
  0
VERTEX
  5
33F
  8
NONE
 10
215.6133040904772
 20
177.3016631637162
 30
0.0
  0
VERTEX
  5
340
  8
NONE
 10
215.5998223426895
 20
177.2563783185834
 30
0.0
  0
VERTEX
  5
341
  8
NONE
 10
215.5773527630436
 20
177.2148268805303
 30
0.0
  0
VERTEX
  5
342
  8
NONE
 10
215.5458953515391
 20
177.1770088495569
 30
0.0
  0
VERTEX
  5
343
  8
NONE
 10
215.5080773205656
 20
177.1455514380525
 30
0.0
  0
VERTEX
  5
344
  8
NONE
 10
215.4665258825125
 20
177.1230818584064
 30
0.0
  0
VERTEX
  5
345
  8
NONE
 10
215.4212410373798
 20
177.1096001106188
 30
0.0
  0
VERTEX
  5
346
  8
NONE
 10
215.3722227851674
 20
177.1051061946896
 30
0.0
  0
VERTEX
  5
347
  8
NONE
 10
215.3232045329551
 20
177.1096001106188
 30
0.0
  0
VERTEX
  5
348
  8
NONE
 10
215.2779196878223
 20
177.1230818584064
 30
0.0
  0
VERTEX
  5
349
  8
NONE
 10
215.2363682497692
 20
177.1455514380525
 30
0.0
  0
VERTEX
  5
34A
  8
NONE
 10
215.1985502187957
 20
177.1770088495569
 30
0.0
  0
VERTEX
  5
34B
  8
NONE
 10
215.1670928072913
 20
177.2148268805303
 30
0.0
  0
VERTEX
  5
34C
  8
NONE
 10
215.1446232276453
 20
177.2563783185834
 30
0.0
  0
VERTEX
  5
34D
  8
NONE
 10
215.1311414798577
 20
177.3016631637162
 30
0.0
  0
VERTEX
  5
34E
  8
NONE
 10
215.1266475639285
 20
177.3506814159286
 30
0.0
  0
VERTEX
  5
34F
  8
NONE
 10
215.1311414798577
 20
177.4005984513268
 30
0.0
  0
VERTEX
  5
350
  8
NONE
 10
215.1446232276453
 20
177.4463672566365
 30
0.0
  0
VERTEX
  5
351
  8
NONE
 10
215.1670928072913
 20
177.4879878318578
 30
0.0
  0
VERTEX
  5
352
  8
NONE
 10
215.1985502187957
 20
177.5254601769905
 30
0.0
  0
VERTEX
  5
353
  8
NONE
 10
215.2363682497692
 20
177.5564336283179
 30
0.0
  0
VERTEX
  5
354
  8
NONE
 10
215.2779196878223
 20
177.5785575221232
 30
0.0
  0
VERTEX
  5
355
  8
NONE
 10
215.3232045329551
 20
177.5918318584064
 30
0.0
  0
SEQEND
  5
A10
  8
NONE
  0
POLYLINE
  5
8B
  8
NONE
 66
     1
 10
0.0
 20
0.0
 30
0.0
 70
     1
  0
VERTEX
  5
356
  8
NONE
 10
216.1023112807427
 20
178.6493539823002
 30
0.0
  0
VERTEX
  5
357
  8
NONE
 10
216.1119904842825
 20
178.8970724557516
 30
0.0
  0
VERTEX
  5
358
  8
NONE
 10
216.141028094902
 20
179.1269535398224
 30
0.0
  0
VERTEX
  5
359
  8
NONE
 10
216.1894241126011
 20
179.3389972345126
 30
0.0
  0
VERTEX
  5
35A
  8
NONE
 10
216.2571785373798
 20
179.5332035398224
 30
0.0
  0
VERTEX
  5
35B
  8
NONE
 10
216.3409727851675
 20
179.7066686946896
 30
0.0
  0
VERTEX
  5
35C
  8
NONE
 10
216.4374882718931
 20
179.8564889380525
 30
0.0
  0
VERTEX
  5
35D
  8
NONE
 10
216.5467249975569
 20
179.9826642699109
 30
0.0
  0
VERTEX
  5
35E
  8
NONE
 10
216.6686829621586
 20
180.0851946902648
 30
0.0
  0
VERTEX
  5
35F
  8
NONE
 10
216.7690701303002
 20
180.1481095132737
 30
0.0
  0
VERTEX
  5
360
  8
NONE
 10
216.8711165904772
 20
180.1930486725657
 30
0.0
  0
VERTEX
  5
361
  8
NONE
 10
216.9748223426895
 20
180.220012168141
 30
0.0
  0
VERTEX
  5
362
  8
NONE
 10
217.0801873869374
 20
180.2289999999994
 30
0.0
  0
VERTEX
  5
363
  8
NONE
 10
217.1653643780878
 20
180.2235035951321
 30
0.0
  0
VERTEX
  5
364
  8
NONE
 10
217.2483289798577
 20
180.2070143805304
 30
0.0
  0
VERTEX
  5
365
  8
NONE
 10
217.3290811922471
 20
180.1795323561941
 30
0.0
  0
VERTEX
  5
366
  8
NONE
 10
217.4076210152559
 20
180.1410575221232
 30
0.0
  0
VERTEX
  5
367
  8
NONE
 10
217.4839484488842
 20
180.0915898783179
 30
0.0
  0
VERTEX
  5
368
  8
NONE
 10
217.558063493132
 20
180.0311294247781
 30
0.0
  0
VERTEX
  5
369
  8
NONE
 10
217.6299661479993
 20
179.9596761615038
 30
0.0
  0
VERTEX
  5
36A
  8
NONE
 10
217.699656413486
 20
179.8772300884949
 30
0.0
  0
VERTEX
  5
36B
  8
NONE
 10
217.7800283714506
 20
179.7634303097338
 30
0.0
  0
VERTEX
  5
36C
  8
NONE
 10
217.8496840683533
 20
179.639951327433
 30
0.0
  0
VERTEX
  5
36D
  8
NONE
 10
217.908623504194
 20
179.5067931415923
 30
0.0
  0
VERTEX
  5
36E
  8
NONE
 10
217.9568466789727
 20
179.3639557522117
 30
0.0
  0
VERTEX
  5
36F
  8
NONE
 10
217.9943535926895
 20
179.2114391592914
 30
0.0
  0
VERTEX
  5
370
  8
NONE
 10
218.0211442453444
 20
179.0492433628312
 30
0.0
  0
VERTEX
  5
371
  8
NONE
 10
218.0372186369373
 20
178.8773683628312
 30
0.0
  0
VERTEX
  5
372
  8
NONE
 10
218.0425767674683
 20
178.6958141592914
 30
0.0
  0
VERTEX
  5
373
  8
NONE
 10
218.033174112601
 20
178.4445696902648
 30
0.0
  0
VERTEX
  5
374
  8
NONE
 10
218.0049661479993
 20
178.2129601769905
 30
0.0
  0
VERTEX
  5
375
  8
NONE
 10
217.957952873663
 20
178.0009856194684
 30
0.0
  0
VERTEX
  5
376
  8
NONE
 10
217.8921342895922
 20
177.8086460176985
 30
0.0
  0
VERTEX
  5
377
  8
NONE
 10
217.8117277630436
 20
177.6386377212383
 30
0.0
  0
VERTEX
  5
378
  8
NONE
 10
217.7209506612737
 20
177.4936570796454
 30
0.0
  0
VERTEX
  5
379
  8
NONE
 10
217.6198029842825
 20
177.3737040929197
 30
0.0
  0
VERTEX
  5
37A
  8
NONE
 10
217.5082847320701
 20
177.2787787610613
 30
0.0
  0
VERTEX
  5
37B
  8
NONE
 10
217.3926182497692
 20
177.2066686946896
 30
0.0
  0
VERTEX
  5
37C
  8
NONE
 10
217.2790258825126
 20
177.1551615044241
 30
0.0
  0
VERTEX
  5
37D
  8
NONE
 10
217.1675076303002
 20
177.1242571902648
 30
0.0
  0
VERTEX
  5
37E
  8
NONE
 10
217.058063493132
 20
177.1139557522117
 30
0.0
  0
VERTEX
  5
37F
  8
NONE
 10
216.9530095661409
 20
177.1218719579639
 30
0.0
  0
VERTEX
  5
380
  8
NONE
 10
216.8524495550789
 20
177.1456205752206
 30
0.0
  0
VERTEX
  5
381
  8
NONE
 10
216.7563834599462
 20
177.1852016039817
 30
0.0
  0
VERTEX
  5
382
  8
NONE
 10
216.6648112807427
 20
177.2406150442471
 30
0.0
  0
VERTEX
  5
383
  8
NONE
 10
216.5777330174683
 20
177.311860896017
 30
0.0
  0
VERTEX
  5
384
  8
NONE
 10
216.4951486701232
 20
177.3989391592914
 30
0.0
  0
VERTEX
  5
385
  8
NONE
 10
216.4170582387073
 20
177.5018498340701
 30
0.0
  0
VERTEX
  5
386
  8
NONE
 10
216.3434617232205
 20
177.6205929203533
 30
0.0
  0
VERTEX
  5
387
  8
NONE
 10
216.2869420882648
 20
177.7300716261055
 30
0.0
  0
VERTEX
  5
388
  8
NONE
 10
216.2379584046365
 20
177.845012168141
 30
0.0
  0
VERTEX
  5
389
  8
NONE
 10
216.1965106723356
 20
177.9654145464596
 30
0.0
  0
VERTEX
  5
38A
  8
NONE
 10
216.1625988913621
 20
178.0912787610613
 30
0.0
  0
VERTEX
  5
38B
  8
NONE
 10
216.1362230617161
 20
178.2226048119462
 30
0.0
  0
VERTEX
  5
38C
  8
NONE
 10
216.1173831833975
 20
178.3593926991144
 30
0.0
  0
VERTEX
  5
38D
  8
NONE
 10
216.1060792564064
 20
178.5016424225657
 30
0.0
  0
SEQEND
  5
A11
  8
NONE
  0
POLYLINE
  5
8C
  8
NONE
 66
     1
 10
0.0
 20
0.0
 30
0.0
 70
     1
  0
VERTEX
  5
38E
  8
NONE
 10
216.5359395993267
 20
178.594044247787
 30
0.0
  0
VERTEX
  5
38F
  8
NONE
 10
216.5454805285303
 20
178.2985519911498
 30
0.0
  0
VERTEX
  5
390
  8
NONE
 10
216.5741033161409
 20
178.031544247787
 30
0.0
  0
VERTEX
  5
391
  8
NONE
 10
216.6218079621586
 20
177.7930210176985
 30
0.0
  0
VERTEX
  5
392
  8
NONE
 10
216.6885944665834
 20
177.5829823008843
 30
0.0
  0
VERTEX
  5
393
  8
NONE
 10
216.7220568559639
 20
177.5057215154861
 30
0.0
  0
VERTEX
  5
394
  8
NONE
 10
216.7593909267604
 20
177.4387621681409
 30
0.0
  0
VERTEX
  5
395
  8
NONE
 10
216.8005966789728
 20
177.3821042588489
 30
0.0
  0
VERTEX
  5
396
  8
NONE
 10
216.8456741126011
 20
177.33574778761
 30
0.0
  0
VERTEX
  5
397
  8
NONE
 10
216.8946232276453
 20
177.2996927544241
 30
0.0
  0
VERTEX
  5
398
  8
NONE
 10
216.9474440241055
 20
177.2739391592914
 30
0.0
  0
VERTEX
  5
399
  8
NONE
 10
217.0041365019816
 20
177.2584870022117
 30
0.0
  0
VERTEX
  5
39A
  8
NONE
 10
217.0647006612736
 20
177.2533362831852
 30
0.0
  0
VERTEX
  5
39B
  8
NONE
 10
217.1249882718931
 20
177.2600425884949
 30
0.0
  0
VERTEX
  5
39C
  8
NONE
 10
217.1863820772028
 20
177.2801615044241
 30
0.0
  0
VERTEX
  5
39D
  8
NONE
 10
217.2488820772028
 20
177.3136930309728
 30
0.0
  0
VERTEX
  5
39E
  8
NONE
 10
217.3124882718931
 20
177.3606371681409
 30
0.0
  0
VERTEX
  5
39F
  8
NONE
 10
217.3727758825126
 20
177.4233445796454
 30
0.0
  0
VERTEX
  5
3A0
  8
NONE
 10
217.4253201303002
 20
177.5041659292029
 30
0.0
  0
VERTEX
  5
3A1
  8
NONE
 10
217.470121015256
 20
177.6031012168135
 30
0.0
  0
VERTEX
  5
3A2
  8
NONE
 10
217.5071785373798
 20
177.7201504424772
 30
0.0
  0
VERTEX
  5
3A3
  8
NONE
 10
217.551702873663
 20
177.9299126106188
 30
0.0
  0
VERTEX
  5
3A4
  8
NONE
 10
217.5835059710082
 20
178.1786681415923
 30
0.0
  0
VERTEX
  5
3A5
  8
NONE
 10
217.6025878294153
 20
178.4664170353976
 30
0.0
  0
VERTEX
  5
3A6
  8
NONE
 10
217.6089484488843
 20
178.7931592920347
 30
0.0
  0
VERTEX
  5
3A7
  8
NONE
 10
217.6023112807427
 20
179.0391493362825
 30
0.0
  0
VERTEX
  5
3A8
  8
NONE
 10
217.5823997763179
 20
179.2638451327427
 30
0.0
  0
VERTEX
  5
3A9
  8
NONE
 10
217.5492139356099
 20
179.4672466814153
 30
0.0
  0
VERTEX
  5
3AA
  8
NONE
 10
217.5027537586188
 20
179.6493539823002
 30
0.0
  0
VERTEX
  5
3AB
  8
NONE
 10
217.4600269887073
 20
179.7673019911498
 30
0.0
  0
VERTEX
  5
3AC
  8
NONE
 10
217.4114926966719
 20
179.8667212389374
 30
0.0
  0
VERTEX
  5
3AD
  8
NONE
 10
217.3571508825126
 20
179.9476117256631
 30
0.0
  0
VERTEX
  5
3AE
  8
NONE
 10
217.2970015462294
 20
180.0099734513268
 30
0.0
  0
VERTEX
  5
3AF
  8
NONE
 10
217.2492969002117
 20
180.0419148230082
 30
0.0
  0
VERTEX
  5
3B0
  8
NONE
 10
217.1968909267604
 20
180.0647300884949
 30
0.0
  0
VERTEX
  5
3B1
  8
NONE
 10
217.1397836258754
 20
180.078419247787
 30
0.0
  0
VERTEX
  5
3B2
  8
NONE
 10
217.0779749975568
 20
180.0829823008843
 30
0.0
  0
VERTEX
  5
3B3
  8
NONE
 10
217.004827873663
 20
180.074547566371
 30
0.0
  0
VERTEX
  5
3B4
  8
NONE
 10
216.9358289798577
 20
180.0492433628312
 30
0.0
  0
VERTEX
  5
3B5
  8
NONE
 10
216.8709783161409
 20
180.0070696902648
 30
0.0
  0
VERTEX
  5
3B6
  8
NONE
 10
216.8102758825126
 20
179.9480265486719
 30
0.0
  0
VERTEX
  5
3B7
  8
NONE
 10
216.7369904842825
 20
179.843076327433
 30
0.0
  0
VERTEX
  5
3B8
  8
NONE
 10
216.6764263249905
 20
179.7118539823002
 30
0.0
  0
VERTEX
  5
3B9
  8
NONE
 10
216.6285834046365
 20
179.5543595132737
 30
0.0
  0
VERTEX
  5
3BA
  8
NONE
 10
216.5934617232205
 20
179.3705929203533
 30
0.0
  0
VERTEX
  5
3BB
  8
NONE
 10
216.5503201303002
 20
178.9795530973445
 30
0.0
  0
SEQEND
  5
A12
  8
NONE
  0
POLYLINE
  5
8D
  8
NONE
 66
     1
 10
0.0
 20
0.0
 30
0.0
  0
VERTEX
  5
3BC
  8
NONE
 10
213.2914705727781
 20
266.3019999999993
 30
0.0
  0
VERTEX
  5
3BD
  8
NONE
 10
213.2914705727781
 20
182.2289999999994
 30
0.0
  0
SEQEND
  5
A13
  8
NONE
  0
POLYLINE
  5
8E
  8
NONE
 66
     1
 10
0.0
 20
0.0
 30
0.0
  0
VERTEX
  5
3BE
  8
NONE
 10
213.2914705727781
 20
175.1051061946896
 30
0.0
  0
VERTEX
  5
3BF
  8
NONE
 10
213.2914705727781
 20
91.15599999999937
 30
0.0
  0
SEQEND
  5
A14
  8
NONE
  0
POLYLINE
  5
8F
  8
NONE
 66
     1
 10
0.0
 20
0.0
 30
0.0
  0
VERTEX
  5
3C0
  8
NONE
 10
161.1
 20
268.7289999999994
 30
0.0
  0
VERTEX
  5
3C1
  8
NONE
 10
214.7914705727781
 20
268.7289999999994
 30
0.0
  0
SEQEND
  5
A15
  8
NONE
  0
POLYLINE
  5
90
  8
NONE
 66
     1
 10
0.0
 20
0.0
 30
0.0
  0
VERTEX
  5
3C2
  8
NONE
 10
161.1
 20
88.72899999999936
 30
0.0
  0
VERTEX
  5
3C3
  8
NONE
 10
214.7914705727781
 20
88.72899999999936
 30
0.0
  0
SEQEND
  5
A16
  8
NONE
  0
POLYLINE
  5
91
  8
NONE
 66
     1
 10
0.0
 20
0.0
 30
0.0
 70
     1
  0
VERTEX
  5
3C4
  8
NONE
 10
94.42500000001438
 20
158.6853978045641
 30
0.0
  0
VERTEX
  5
3C5
  8
NONE
 10
91.99800000001451
 20
159.4353978045646
 30
0.0
  0
VERTEX
  5
3C6
  8
NONE
 10
94.42500000001466
 20
160.1853978045641
 30
0.0
  0
SEQEND
  5
A17
  8
NONE
  0
POLYLINE
  5
92
  8
NONE
 66
     1
 10
0.0
 20
0.0
 30
0.0
 70
     1
  0
VERTEX
  5
3C7
  8
NONE
 10
143.5730000000177
 20
160.1853978045545
 30
0.0
  0
VERTEX
  5
3C8
  8
NONE
 10
146.0000000000175
 20
159.435397804554
 30
0.0
  0
VERTEX
  5
3C9
  8
NONE
 10
143.5730000000174
 20
158.6853978045545
 30
0.0
  0
SEQEND
  5
A18
  8
NONE
  0
POLYLINE
  5
93
  8
NONE
 66
     1
 10
0.0
 20
0.0
 30
0.0
 70
     1
  0
VERTEX
  5
3CA
  8
NONE
 10
116.9735575221399
 20
160.8734509019044
 30
0.0
  0
VERTEX
  5
3CB
  8
NONE
 10
116.8009911504585
 20
160.4973447072142
 30
0.0
  0
VERTEX
  5
3CC
  8
NONE
 10
115.8983362832019
 20
160.4973447072142
 30
0.0
  0
VERTEX
  5
3CD
  8
NONE
 10
115.7014336283346
 20
160.0946898399575
 30
0.0
  0
VERTEX
  5
3CE
  8
NONE
 10
115.844201880547
 20
160.069005381993
 30
0.0
  0
VERTEX
  5
3CF
  8
NONE
 10
115.9793650442638
 20
160.0350936010195
 30
0.0
  0
VERTEX
  5
3D0
  8
NONE
 10
116.106923119485
 20
159.9929544970372
 30
0.0
  0
VERTEX
  5
3D1
  8
NONE
 10
116.2268761062107
 20
159.942588070046
 30
0.0
  0
VERTEX
  5
3D2
  8
NONE
 10
116.3392240044408
 20
159.883994320046
 30
0.0
  0
VERTEX
  5
3D3
  8
NONE
 10
116.4439668141753
 20
159.8171732470372
 30
0.0
  0
VERTEX
  5
3D4
  8
NONE
 10
116.5411045354143
 20
159.7421248510195
 30
0.0
  0
VERTEX
  5
3D5
  8
NONE
 10
116.6306371681576
 20
159.658849131993
 30
0.0
  0
VERTEX
  5
3D6
  8
NONE
 10
116.6996014933789
 20
159.5819686010195
 30
0.0
  0
VERTEX
  5
3D7
  8
NONE
 10
116.7593705752373
 20
159.5017694859752
 30
0.0
  0
VERTEX
  5
3D8
  8
NONE
 10
116.8099444137328
 20
159.4182517868602
 30
0.0
  0
VERTEX
  5
3D9
  8
NONE
 10
116.8513230088656
 20
159.3314155036744
 30
0.0
  0
VERTEX
  5
3DA
  8
NONE
 10
116.8835063606355
 20
159.2412606364177
 30
0.0
  0
VERTEX
  5
3DB
  8
NONE
 10
116.9064944690426
 20
159.1477871850903
 30
0.0
  0
VERTEX
  5
3DC
  8
NONE
 10
116.9202873340868
 20
159.0509951496921
 30
0.0
  0
VERTEX
  5
3DD
  8
NONE
 10
116.9248849557682
 20
158.950884530223
 30
0.0
  0
VERTEX
  5
3DE
  8
NONE
 10
116.9188700221399
 20
158.8347340877451
 30
0.0
  0
VERTEX
  5
3DF
  8
NONE
 10
116.900825221255
 20
158.7230084240283
 30
0.0
  0
VERTEX
  5
3E0
  8
NONE
 10
116.8707505531134
 20
158.6157075390726
 30
0.0
  0
VERTEX
  5
3E1
  8
NONE
 10
116.8286460177151
 20
158.5128314328779
 30
0.0
  0
VERTEX
  5
3E2
  8
NONE
 10
116.7774153761222
 20
158.4159011231434
 30
0.0
  0
VERTEX
  5
3E3
  8
NONE
 10
116.7199623893966
 20
158.3264376275682
 30
0.0
  0
VERTEX
  5
3E4
  8
NONE
 10
116.6562870575382
 20
158.2444409461523
 30
0.0
  0
VERTEX
  5
3E5
  8
NONE
 10
116.586389380547
 20
158.1699110788956
 30
0.0
  0
VERTEX
  5
3E6
  8
NONE
 10
116.5113064159452
 20
158.1025714771257
 30
0.0
  0
VERTEX
  5
3E7
  8
NONE
 10
116.4320752212549
 20
158.04214559217
 30
0.0
  0
VERTEX
  5
3E8
  8
NONE
 10
116.3486957964762
 20
157.9886334240283
 30
0.0
  0
VERTEX
  5
3E9
  8
NONE
 10
116.2611681416089
 20
157.9420349727009
 30
0.0
  0
VERTEX
  5
3EA
  8
NONE
 10
116.1331261062107
 20
157.8887993532319
 30
0.0
  0
VERTEX
  5
3EB
  8
NONE
 10
116.0034247787771
 20
157.850773910754
 30
0.0
  0
VERTEX
  5
3EC
  8
NONE
 10
115.8720641593081
 20
157.8279586452672
 30
0.0
  0
VERTEX
  5
3ED
  8
NONE
 10
115.7390442478036
 20
157.8203535567717
 30
0.0
  0
VERTEX
  5
3EE
  8
NONE
 10
115.6132837389541
 20
157.8260919417274
 30
0.0
  0
VERTEX
  5
3EF
  8
NONE
 10
115.5059137168302
 20
157.8433070965947
 30
0.0
  0
VERTEX
  5
3F0
  8
NONE
 10
115.416934181432
 20
157.8719990213735
 30
0.0
  0
VERTEX
  5
3F1
  8
NONE
 10
115.3463451327594
 20
157.9121677160637
 30
0.0
  0
VERTEX
  5
3F2
  8
NONE
 10
115.2926255531133
 20
157.9592501275682
 30
0.0
  0
VERTEX
  5
3F3
  8
NONE
 10
115.2542544247948
 20
158.0086832027894
 30
0.0
  0
VERTEX
  5
3F4
  8
NONE
 10
115.2312317478036
 20
158.0604669417275
 30
0.0
  0
VERTEX
  5
3F5
  8
NONE
 10
115.2235575221399
 20
158.1146013443823
 30
0.0
  0
VERTEX
  5
3F6
  8
NONE
 10
115.236278761078
 20
158.1729531142938
 30
0.0
  0
VERTEX
  5
3F7
  8
NONE
 10
115.2744424778921
 20
158.2241146187186
 30
0.0
  0
VERTEX
  5
3F8
  8
NONE
 10
115.3319646017859
 20
158.2597893974797
 30
0.0
  0
VERTEX
  5
3F9
  8
NONE
 10
115.4027610619629
 20
158.2716809904
 30
0.0
  0
VERTEX
  5
3FA
  8
NONE
 10
115.4566880531134
 20
158.267256211639
 30
0.0
  0
VERTEX
  5
3FB
  8
NONE
 10
115.5034247787771
 20
158.2539818753558
 30
0.0
  0
VERTEX
  5
3FC
  8
NONE
 10
115.5617765486886
 20
158.2224553266832
 30
0.0
  0
VERTEX
  5
3FD
  8
NONE
 10
115.6505486725824
 20
158.163273910754
 30
0.0
  0
VERTEX
  5
3FE
  8
NONE
 10
115.7337898230249
 20
158.1129420523469
 30
0.0
  0
VERTEX
  5
3FF
  8
NONE
 10
115.8175840708125
 20
158.0769907249133
 30
0.0
  0
VERTEX
  5
400
  8
NONE
 10
115.9019314159452
 20
158.0554199284531
 30
0.0
  0
VERTEX
  5
401
  8
NONE
 10
115.9868318584231
 20
158.0482296629664
 30
0.0
  0
VERTEX
  5
402
  8
NONE
 10
116.1123158186001
 20
158.0604669417275
 30
0.0
  0
VERTEX
  5
403
  8
NONE
 10
116.2299181416089
 20
158.0971787780107
 30
0.0
  0
VERTEX
  5
404
  8
NONE
 10
116.3396388274497
 20
158.1583651718159
 30
0.0
  0
VERTEX
  5
405
  8
NONE
 10
116.4414778761222
 20
158.2440261231434
 30
0.0
  0
VERTEX
  5
406
  8
NONE
 10
116.5271388274496
 20
158.3472479151787
 30
0.0
  0
VERTEX
  5
407
  8
NONE
 10
116.588325221255
 20
158.461116831108
 30
0.0
  0
VERTEX
  5
408
  8
NONE
 10
116.6250370575381
 20
158.585632870931
 30
0.0
  0
VERTEX
  5
409
  8
NONE
 10
116.6372743362992
 20
158.7207960346478
 30
0.0
  0
VERTEX
  5
40A
  8
NONE
 10
116.6263506637328
 20
158.8545764550018
 30
0.0
  0
VERTEX
  5
40B
  8
NONE
 10
116.5935796460337
 20
158.9837938222584
 30
0.0
  0
VERTEX
  5
40C
  8
NONE
 10
116.5389612832019
 20
159.1084481364177
 30
0.0
  0
VERTEX
  5
40D
  8
NONE
 10
116.4624955752373
 20
159.2285393974797
 30
0.0
  0
VERTEX
  5
40E
  8
NONE
 10
116.3668097345293
 20
159.3396428266832
 30
0.0
  0
VERTEX
  5
40F
  8
NONE
 10
116.2545309734674
 20
159.4373336452673
 30
0.0
  0
VERTEX
  5
410
  8
NONE
 10
116.1256592920514
 20
159.5216118532319
 30
0.0
  0
VERTEX
  5
411
  8
NONE
 10
115.9801946902815
 20
159.592477450577
 30
0.0
  0
VERTEX
  5
412
  8
NONE
 10
115.8486957964762
 20
159.6370017868602
 30
0.0
  0
VERTEX
  5
413
  8
NONE
 10
115.6953495575382
 20
159.6710172735859
 30
0.0
  0
VERTEX
  5
414
  8
NONE
 10
115.5201559734674
 20
159.694523910754
 30
0.0
  0
VERTEX
  5
415
  8
NONE
 10
115.3231150442638
 20
159.7075216983646
 30
0.0
  0
VERTEX
  5
416
  8
NONE
 10
115.8983362832019
 20
160.8734509019044
 30
0.0
  0
SEQEND
  5
A19
  8
NONE
  0
POLYLINE
  5
94
  8
NONE
 66
     1
 10
0.0
 20
0.0
 30
0.0
 70
     1
  0
VERTEX
  5
417
  8
NONE
 10
119.3806371681576
 20
158.9796455921699
 30
0.0
  0
VERTEX
  5
418
  8
NONE
 10
119.3806371681576
 20
158.6654863001345
 30
0.0
  0
VERTEX
  5
419
  8
NONE
 10
118.977982300901
 20
158.6654863001345
 30
0.0
  0
VERTEX
  5
41A
  8
NONE
 10
118.977982300901
 20
157.8734509019044
 30
0.0
  0
VERTEX
  5
41B
  8
NONE
 10
118.6129380531134
 20
157.8734509019044
 30
0.0
  0
VERTEX
  5
41C
  8
NONE
 10
118.6129380531134
 20
158.6654863001345
 30
0.0
  0
VERTEX
  5
41D
  8
NONE
 10
117.3430265486886
 20
158.6654863001345
 30
0.0
  0
VERTEX
  5
41E
  8
NONE
 10
117.3430265486886
 20
158.9486721408425
 30
0.0
  0
VERTEX
  5
41F
  8
NONE
 10
118.7346194690426
 20
160.9353978045593
 30
0.0
  0
VERTEX
  5
420
  8
NONE
 10
118.977982300901
 20
160.9353978045593
 30
0.0
  0
VERTEX
  5
421
  8
NONE
 10
118.977982300901
 20
158.9796455921699
 30
0.0
  0
SEQEND
  5
A1A
  8
NONE
  0
POLYLINE
  5
95
  8
NONE
 66
     1
 10
0.0
 20
0.0
 30
0.0
 70
     1
  0
VERTEX
  5
422
  8
NONE
 10
118.6129380531134
 20
158.9796455921699
 30
0.0
  0
VERTEX
  5
423
  8
NONE
 10
118.6129380531134
 20
160.4685836452673
 30
0.0
  0
VERTEX
  5
424
  8
NONE
 10
117.5598407079806
 20
158.9796455921699
 30
0.0
  0
SEQEND
  5
A1B
  8
NONE
  0
POLYLINE
  5
96
  8
NONE
 66
     1
 10
0.0
 20
0.0
 30
0.0
 70
     1
  0
VERTEX
  5
425
  8
NONE
 10
120.1040884955912
 20
158.3026544417275
 30
0.0
  0
VERTEX
  5
426
  8
NONE
 10
120.1540055309895
 20
158.2981605257983
 30
0.0
  0
VERTEX
  5
427
  8
NONE
 10
120.1997743362992
 20
158.2846787780107
 30
0.0
  0
VERTEX
  5
428
  8
NONE
 10
120.2413949115204
 20
158.2622091983646
 30
0.0
  0
VERTEX
  5
429
  8
NONE
 10
120.2788672566532
 20
158.2307517868602
 30
0.0
  0
VERTEX
  5
42A
  8
NONE
 10
120.3098407079806
 20
158.1929337558867
 30
0.0
  0
VERTEX
  5
42B
  8
NONE
 10
120.3319646017859
 20
158.1513823178336
 30
0.0
  0
VERTEX
  5
42C
  8
NONE
 10
120.3452389380691
 20
158.1060974727009
 30
0.0
  0
VERTEX
  5
42D
  8
NONE
 10
120.3496637168302
 20
158.0570792204885
 30
0.0
  0
VERTEX
  5
42E
  8
NONE
 10
120.345169800901
 20
158.0080609682761
 30
0.0
  0
VERTEX
  5
42F
  8
NONE
 10
120.3316880531134
 20
157.9627761231434
 30
0.0
  0
VERTEX
  5
430
  8
NONE
 10
120.3092184734674
 20
157.9212246850903
 30
0.0
  0
VERTEX
  5
431
  8
NONE
 10
120.2777610619629
 20
157.8834066541168
 30
0.0
  0
VERTEX
  5
432
  8
NONE
 10
120.2399430309895
 20
157.8519492426124
 30
0.0
  0
VERTEX
  5
433
  8
NONE
 10
120.1983915929364
 20
157.8294796629664
 30
0.0
  0
VERTEX
  5
434
  8
NONE
 10
120.1531067478036
 20
157.8159979151788
 30
0.0
  0
VERTEX
  5
435
  8
NONE
 10
120.1040884955912
 20
157.8115039992496
 30
0.0
  0
VERTEX
  5
436
  8
NONE
 10
120.0550702433789
 20
157.8159979151788
 30
0.0
  0
VERTEX
  5
437
  8
NONE
 10
120.0097853982461
 20
157.8294796629664
 30
0.0
  0
VERTEX
  5
438
  8
NONE
 10
119.968233960193
 20
157.8519492426124
 30
0.0
  0
VERTEX
  5
439
  8
NONE
 10
119.9304159292196
 20
157.8834066541168
 30
0.0
  0
VERTEX
  5
43A
  8
NONE
 10
119.8989585177151
 20
157.9212246850903
 30
0.0
  0
VERTEX
  5
43B
  8
NONE
 10
119.8764889380691
 20
157.9627761231434
 30
0.0
  0
VERTEX
  5
43C
  8
NONE
 10
119.8630071902815
 20
158.0080609682761
 30
0.0
  0
VERTEX
  5
43D
  8
NONE
 10
119.8585132743523
 20
158.0570792204885
 30
0.0
  0
VERTEX
  5
43E
  8
NONE
 10
119.8630071902815
 20
158.1069962558868
 30
0.0
  0
VERTEX
  5
43F
  8
NONE
 10
119.8764889380691
 20
158.1527650611965
 30
0.0
  0
VERTEX
  5
440
  8
NONE
 10
119.8989585177151
 20
158.1943856364177
 30
0.0
  0
VERTEX
  5
441
  8
NONE
 10
119.9304159292196
 20
158.2318579815505
 30
0.0
  0
VERTEX
  5
442
  8
NONE
 10
119.968233960193
 20
158.2628314328779
 30
0.0
  0
VERTEX
  5
443
  8
NONE
 10
120.0097853982461
 20
158.2849553266832
 30
0.0
  0
VERTEX
  5
444
  8
NONE
 10
120.0550702433789
 20
158.2982296629664
 30
0.0
  0
SEQEND
  5
A1C
  8
NONE
  0
POLYLINE
  5
97
  8
NONE
 66
     1
 10
0.0
 20
0.0
 30
0.0
 70
     1
  0
VERTEX
  5
445
  8
NONE
 10
120.8341769911665
 20
159.3557517868602
 30
0.0
  0
VERTEX
  5
446
  8
NONE
 10
120.8438561947063
 20
159.6034702603115
 30
0.0
  0
VERTEX
  5
447
  8
NONE
 10
120.8728938053258
 20
159.8333513443823
 30
0.0
  0
VERTEX
  5
448
  8
NONE
 10
120.9212898230249
 20
160.0453950390726
 30
0.0
  0
VERTEX
  5
449
  8
NONE
 10
120.9890442478036
 20
160.2396013443823
 30
0.0
  0
VERTEX
  5
44A
  8
NONE
 10
121.0728384955913
 20
160.4130664992496
 30
0.0
  0
VERTEX
  5
44B
  8
NONE
 10
121.1693539823169
 20
160.5628867426124
 30
0.0
  0
VERTEX
  5
44C
  8
NONE
 10
121.2785907079806
 20
160.6890620744708
 30
0.0
  0
VERTEX
  5
44D
  8
NONE
 10
121.4005486725824
 20
160.7915924948248
 30
0.0
  0
VERTEX
  5
44E
  8
NONE
 10
121.500935840724
 20
160.8545073178337
 30
0.0
  0
VERTEX
  5
44F
  8
NONE
 10
121.602982300901
 20
160.8994464771257
 30
0.0
  0
VERTEX
  5
450
  8
NONE
 10
121.7066880531134
 20
160.9264099727009
 30
0.0
  0
VERTEX
  5
451
  8
NONE
 10
121.8120530973612
 20
160.9353978045593
 30
0.0
  0
VERTEX
  5
452
  8
NONE
 10
121.8972300885116
 20
160.9299013996921
 30
0.0
  0
VERTEX
  5
453
  8
NONE
 10
121.9801946902815
 20
160.9134121850903
 30
0.0
  0
VERTEX
  5
454
  8
NONE
 10
122.0609469026709
 20
160.885930160754
 30
0.0
  0
VERTEX
  5
455
  8
NONE
 10
122.1394867256798
 20
160.8474553266832
 30
0.0
  0
VERTEX
  5
456
  8
NONE
 10
122.2158141593081
 20
160.7979876828779
 30
0.0
  0
VERTEX
  5
457
  8
NONE
 10
122.2899292035559
 20
160.7375272293381
 30
0.0
  0
VERTEX
  5
458
  8
NONE
 10
122.3618318584231
 20
160.6660739660637
 30
0.0
  0
VERTEX
  5
459
  8
NONE
 10
122.4315221239098
 20
160.5836278930549
 30
0.0
  0
VERTEX
  5
45A
  8
NONE
 10
122.5118940818744
 20
160.4698281142938
 30
0.0
  0
VERTEX
  5
45B
  8
NONE
 10
122.5815497787771
 20
160.346349131993
 30
0.0
  0
VERTEX
  5
45C
  8
NONE
 10
122.6404892146178
 20
160.2131909461522
 30
0.0
  0
VERTEX
  5
45D
  8
NONE
 10
122.6887123893966
 20
160.0703535567717
 30
0.0
  0
VERTEX
  5
45E
  8
NONE
 10
122.7262193031134
 20
159.9178369638513
 30
0.0
  0
VERTEX
  5
45F
  8
NONE
 10
122.7530099557682
 20
159.7556411673912
 30
0.0
  0
VERTEX
  5
460
  8
NONE
 10
122.7690843473612
 20
159.5837661673912
 30
0.0
  0
VERTEX
  5
461
  8
NONE
 10
122.7744424778921
 20
159.4022119638514
 30
0.0
  0
VERTEX
  5
462
  8
NONE
 10
122.7650398230249
 20
159.1509674948248
 30
0.0
  0
VERTEX
  5
463
  8
NONE
 10
122.7368318584231
 20
158.9193579815505
 30
0.0
  0
VERTEX
  5
464
  8
NONE
 10
122.6898185840868
 20
158.7073834240284
 30
0.0
  0
VERTEX
  5
465
  8
NONE
 10
122.624000000016
 20
158.5150438222584
 30
0.0
  0
VERTEX
  5
466
  8
NONE
 10
122.5435934734674
 20
158.3450355257982
 30
0.0
  0
VERTEX
  5
467
  8
NONE
 10
122.4528163716975
 20
158.2000548842053
 30
0.0
  0
VERTEX
  5
468
  8
NONE
 10
122.3516686947063
 20
158.0801018974797
 30
0.0
  0
VERTEX
  5
469
  8
NONE
 10
122.2401504424939
 20
157.9851765656213
 30
0.0
  0
VERTEX
  5
46A
  8
NONE
 10
122.124483960193
 20
157.9130664992496
 30
0.0
  0
VERTEX
  5
46B
  8
NONE
 10
122.0108915929364
 20
157.8615593089841
 30
0.0
  0
VERTEX
  5
46C
  8
NONE
 10
121.899373340724
 20
157.8306549948248
 30
0.0
  0
VERTEX
  5
46D
  8
NONE
 10
121.7899292035559
 20
157.8203535567717
 30
0.0
  0
VERTEX
  5
46E
  8
NONE
 10
121.6848752765647
 20
157.8282697625239
 30
0.0
  0
VERTEX
  5
46F
  8
NONE
 10
121.5843152655028
 20
157.8520183797806
 30
0.0
  0
VERTEX
  5
470
  8
NONE
 10
121.48824917037
 20
157.8915994085416
 30
0.0
  0
VERTEX
  5
471
  8
NONE
 10
121.3966769911665
 20
157.9470128488071
 30
0.0
  0
VERTEX
  5
472
  8
NONE
 10
121.3095987278921
 20
158.018258700577
 30
0.0
  0
VERTEX
  5
473
  8
NONE
 10
121.227014380547
 20
158.1053369638514
 30
0.0
  0
VERTEX
  5
474
  8
NONE
 10
121.1489239491311
 20
158.2082476386301
 30
0.0
  0
VERTEX
  5
475
  8
NONE
 10
121.0753274336444
 20
158.3269907249133
 30
0.0
  0
VERTEX
  5
476
  8
NONE
 10
121.0188077986886
 20
158.4364694306655
 30
0.0
  0
VERTEX
  5
477
  8
NONE
 10
120.9698241150603
 20
158.5514099727009
 30
0.0
  0
VERTEX
  5
478
  8
NONE
 10
120.9283763827594
 20
158.6718123510195
 30
0.0
  0
VERTEX
  5
479
  8
NONE
 10
120.894464601786
 20
158.7976765656213
 30
0.0
  0
VERTEX
  5
47A
  8
NONE
 10
120.8680887721399
 20
158.9290026165062
 30
0.0
  0
VERTEX
  5
47B
  8
NONE
 10
120.8492488938214
 20
159.0657905036744
 30
0.0
  0
VERTEX
  5
47C
  8
NONE
 10
120.8379449668302
 20
159.2080402271257
 30
0.0
  0
SEQEND
  5
A1D
  8
NONE
  0
POLYLINE
  5
98
  8
NONE
 66
     1
 10
0.0
 20
0.0
 30
0.0
 70
     1
  0
VERTEX
  5
47D
  8
NONE
 10
121.2678053097506
 20
159.3004420523469
 30
0.0
  0
VERTEX
  5
47E
  8
NONE
 10
121.2773462389541
 20
159.0049497957098
 30
0.0
  0
VERTEX
  5
47F
  8
NONE
 10
121.3059690265647
 20
158.7379420523469
 30
0.0
  0
VERTEX
  5
480
  8
NONE
 10
121.3536736725824
 20
158.4994188222584
 30
0.0
  0
VERTEX
  5
481
  8
NONE
 10
121.4204601770072
 20
158.2893801054443
 30
0.0
  0
VERTEX
  5
482
  8
NONE
 10
121.4539225663877
 20
158.212119320046
 30
0.0
  0
VERTEX
  5
483
  8
NONE
 10
121.4912566371842
 20
158.1451599727009
 30
0.0
  0
VERTEX
  5
484
  8
NONE
 10
121.5324623893966
 20
158.0885020634089
 30
0.0
  0
VERTEX
  5
485
  8
NONE
 10
121.5775398230249
 20
158.0421455921699
 30
0.0
  0
VERTEX
  5
486
  8
NONE
 10
121.6264889380691
 20
158.0060905589841
 30
0.0
  0
VERTEX
  5
487
  8
NONE
 10
121.6793097345293
 20
157.9803369638514
 30
0.0
  0
VERTEX
  5
488
  8
NONE
 10
121.7360022124054
 20
157.9648848067717
 30
0.0
  0
VERTEX
  5
489
  8
NONE
 10
121.7965663716975
 20
157.9597340877451
 30
0.0
  0
VERTEX
  5
48A
  8
NONE
 10
121.8568539823169
 20
157.9664403930549
 30
0.0
  0
VERTEX
  5
48B
  8
NONE
 10
121.9182477876267
 20
157.9865593089841
 30
0.0
  0
VERTEX
  5
48C
  8
NONE
 10
121.9807477876267
 20
158.0200908355328
 30
0.0
  0
VERTEX
  5
48D
  8
NONE
 10
122.0443539823169
 20
158.0670349727009
 30
0.0
  0
VERTEX
  5
48E
  8
NONE
 10
122.1046415929364
 20
158.1297423842054
 30
0.0
  0
VERTEX
  5
48F
  8
NONE
 10
122.157185840724
 20
158.2105637337629
 30
0.0
  0
VERTEX
  5
490
  8
NONE
 10
122.2019867256798
 20
158.3094990213735
 30
0.0
  0
VERTEX
  5
491
  8
NONE
 10
122.2390442478036
 20
158.4265482470372
 30
0.0
  0
VERTEX
  5
492
  8
NONE
 10
122.2835685840868
 20
158.6363104151788
 30
0.0
  0
VERTEX
  5
493
  8
NONE
 10
122.315371681432
 20
158.8850659461522
 30
0.0
  0
VERTEX
  5
494
  8
NONE
 10
122.334453539839
 20
159.1728148399575
 30
0.0
  0
VERTEX
  5
495
  8
NONE
 10
122.3408141593081
 20
159.4995570965947
 30
0.0
  0
VERTEX
  5
496
  8
NONE
 10
122.3341769911665
 20
159.7455471408425
 30
0.0
  0
VERTEX
  5
497
  8
NONE
 10
122.3142654867417
 20
159.9702429373027
 30
0.0
  0
VERTEX
  5
498
  8
NONE
 10
122.2810796460337
 20
160.1736444859752
 30
0.0
  0
VERTEX
  5
499
  8
NONE
 10
122.2346194690426
 20
160.3557517868602
 30
0.0
  0
VERTEX
  5
49A
  8
NONE
 10
122.1918926991311
 20
160.4736997957098
 30
0.0
  0
VERTEX
  5
49B
  8
NONE
 10
122.1433584070957
 20
160.5731190434974
 30
0.0
  0
VERTEX
  5
49C
  8
NONE
 10
122.0890165929364
 20
160.654009530223
 30
0.0
  0
VERTEX
  5
49D
  8
NONE
 10
122.0288672566532
 20
160.7163712558867
 30
0.0
  0
VERTEX
  5
49E
  8
NONE
 10
121.9811626106355
 20
160.7483126275682
 30
0.0
  0
VERTEX
  5
49F
  8
NONE
 10
121.9287566371842
 20
160.7711278930549
 30
0.0
  0
VERTEX
  5
4A0
  8
NONE
 10
121.8716493362992
 20
160.7848170523469
 30
0.0
  0
VERTEX
  5
4A1
  8
NONE
 10
121.8098407079806
 20
160.7893801054443
 30
0.0
  0
VERTEX
  5
4A2
  8
NONE
 10
121.7366935840868
 20
160.780945370931
 30
0.0
  0
VERTEX
  5
4A3
  8
NONE
 10
121.6676946902815
 20
160.7556411673912
 30
0.0
  0
VERTEX
  5
4A4
  8
NONE
 10
121.6028440265647
 20
160.7134674948248
 30
0.0
  0
VERTEX
  5
4A5
  8
NONE
 10
121.5421415929364
 20
160.6544243532319
 30
0.0
  0
VERTEX
  5
4A6
  8
NONE
 10
121.4688561947063
 20
160.549474131993
 30
0.0
  0
VERTEX
  5
4A7
  8
NONE
 10
121.4082920354143
 20
160.4182517868602
 30
0.0
  0
VERTEX
  5
4A8
  8
NONE
 10
121.3604491150603
 20
160.2607573178337
 30
0.0
  0
VERTEX
  5
4A9
  8
NONE
 10
121.3253274336444
 20
160.0769907249133
 30
0.0
  0
VERTEX
  5
4AA
  8
NONE
 10
121.282185840724
 20
159.6859509019044
 30
0.0
  0
SEQEND
  5
A1E
  8
NONE
  0
POLYLINE
  5
99
  8
NONE
 66
     1
 10
0.0
 20
0.0
 30
0.0
  0
VERTEX
  5
4AB
  8
NONE
 10
94.4250000000145
 20
159.4353978045641
 30
0.0
  0
VERTEX
  5
4AC
  8
NONE
 10
113.2235575221399
 20
159.4353978045604
 30
0.0
  0
SEQEND
  5
A1F
  8
NONE
  0
POLYLINE
  5
9A
  8
NONE
 66
     1
 10
0.0
 20
0.0
 30
0.0
  0
VERTEX
  5
4AD
  8
NONE
 10
124.7744424778921
 20
159.4353978045582
 30
0.0
  0
VERTEX
  5
4AE
  8
NONE
 10
143.5730000000175
 20
159.4353978045545
 30
0.0
  0
SEQEND
  5
A20
  8
NONE
  0
POLYLINE
  5
9B
  8
NONE
 66
     1
 10
0.0
 20
0.0
 30
0.0
  0
VERTEX
  5
4AF
  8
NONE
 10
91.99800000002007
 20
187.6290000000393
 30
0.0
  0
VERTEX
  5
4B0
  8
NONE
 10
91.99800000001422
 20
157.9353978045646
 30
0.0
  0
SEQEND
  5
A21
  8
NONE
  0
POLYLINE
  5
9C
  8
NONE
 66
     1
 10
0.0
 20
0.0
 30
0.0
  0
VERTEX
  5
4B1
  8
NONE
 10
146.0000000000231
 20
187.6290000000287
 30
0.0
  0
VERTEX
  5
4B2
  8
NONE
 10
146.0000000000173
 20
157.935397804554
 30
0.0
  0
SEQEND
  5
A22
  8
NONE
  0
POLYLINE
  5
9D
  8
NONE
 66
     1
 10
0.0
 20
0.0
 30
0.0
 70
     1
  0
VERTEX
  5
4B3
  8
NONE
 10
93.42499999999505
 20
122.1305353663358
 30
0.0
  0
VERTEX
  5
4B4
  8
NONE
 10
90.9979999999951
 20
122.880535366336
 30
0.0
  0
VERTEX
  5
4B5
  8
NONE
 10
93.42499999999517
 20
123.6305353663358
 30
0.0
  0
SEQEND
  5
A23
  8
NONE
  0
POLYLINE
  5
9E
  8
NONE
 66
     1
 10
0.0
 20
0.0
 30
0.0
 70
     1
  0
VERTEX
  5
4B6
  8
NONE
 10
144.5729999999895
 20
123.6305353663324
 30
0.0
  0
VERTEX
  5
4B7
  8
NONE
 10
146.9999999999894
 20
122.8805353663323
 30
0.0
  0
VERTEX
  5
4B8
  8
NONE
 10
144.5729999999893
 20
122.1305353663324
 30
0.0
  0
SEQEND
  5
A24
  8
NONE
  0
POLYLINE
  5
9F
  8
NONE
 66
     1
 10
0.0
 20
0.0
 30
0.0
 70
     1
  0
VERTEX
  5
4B9
  8
NONE
 10
116.9735575221162
 20
124.3185884636793
 30
0.0
  0
VERTEX
  5
4BA
  8
NONE
 10
116.8009911504347
 20
123.942482268989
 30
0.0
  0
VERTEX
  5
4BB
  8
NONE
 10
115.8983362831781
 20
123.942482268989
 30
0.0
  0
VERTEX
  5
4BC
  8
NONE
 10
115.7014336283108
 20
123.5398274017324
 30
0.0
  0
VERTEX
  5
4BD
  8
NONE
 10
115.8442018805232
 20
123.5141429437678
 30
0.0
  0
VERTEX
  5
4BE
  8
NONE
 10
115.97936504424
 20
123.4802311627943
 30
0.0
  0
VERTEX
  5
4BF
  8
NONE
 10
116.1069231194613
 20
123.438092058812
 30
0.0
  0
VERTEX
  5
4C0
  8
NONE
 10
116.2268761061869
 20
123.3877256318209
 30
0.0
  0
VERTEX
  5
4C1
  8
NONE
 10
116.339224004417
 20
123.3291318818209
 30
0.0
  0
VERTEX
  5
4C2
  8
NONE
 10
116.4439668141516
 20
123.262310808812
 30
0.0
  0
VERTEX
  5
4C3
  8
NONE
 10
116.5411045353905
 20
123.1872624127943
 30
0.0
  0
VERTEX
  5
4C4
  8
NONE
 10
116.6306371681339
 20
123.1039866937678
 30
0.0
  0
VERTEX
  5
4C5
  8
NONE
 10
116.6996014933551
 20
123.0271061627943
 30
0.0
  0
VERTEX
  5
4C6
  8
NONE
 10
116.7593705752135
 20
122.9469070477501
 30
0.0
  0
VERTEX
  5
4C7
  8
NONE
 10
116.8099444137091
 20
122.863389348635
 30
0.0
  0
VERTEX
  5
4C8
  8
NONE
 10
116.8513230088418
 20
122.7765530654492
 30
0.0
  0
VERTEX
  5
4C9
  8
NONE
 10
116.8835063606117
 20
122.6863981981925
 30
0.0
  0
VERTEX
  5
4CA
  8
NONE
 10
116.9064944690188
 20
122.5929247468651
 30
0.0
  0
VERTEX
  5
4CB
  8
NONE
 10
116.9202873340631
 20
122.4961327114669
 30
0.0
  0
VERTEX
  5
4CC
  8
NONE
 10
116.9248849557445
 20
122.3960220919979
 30
0.0
  0
VERTEX
  5
4CD
  8
NONE
 10
116.9188700221162
 20
122.27987164952
 30
0.0
  0
VERTEX
  5
4CE
  8
NONE
 10
116.9008252212312
 20
122.1681459858032
 30
0.0
  0
VERTEX
  5
4CF
  8
NONE
 10
116.8707505530896
 20
122.0608451008474
 30
0.0
  0
VERTEX
  5
4D0
  8
NONE
 10
116.8286460176914
 20
121.9579689946527
 30
0.0
  0
VERTEX
  5
4D1
  8
NONE
 10
116.7774153760984
 20
121.8610386849182
 30
0.0
  0
VERTEX
  5
4D2
  8
NONE
 10
116.7199623893728
 20
121.771575189343
 30
0.0
  0
VERTEX
  5
4D3
  8
NONE
 10
116.6562870575144
 20
121.6895785079271
 30
0.0
  0
VERTEX
  5
4D4
  8
NONE
 10
116.5863893805232
 20
121.6150486406704
 30
0.0
  0
VERTEX
  5
4D5
  8
NONE
 10
116.5113064159215
 20
121.5477090389005
 30
0.0
  0
VERTEX
  5
4D6
  8
NONE
 10
116.4320752212312
 20
121.4872831539448
 30
0.0
  0
VERTEX
  5
4D7
  8
NONE
 10
116.3486957964524
 20
121.4337709858032
 30
0.0
  0
VERTEX
  5
4D8
  8
NONE
 10
116.2611681415852
 20
121.3871725344757
 30
0.0
  0
VERTEX
  5
4D9
  8
NONE
 10
116.1331261061869
 20
121.3339369150067
 30
0.0
  0
VERTEX
  5
4DA
  8
NONE
 10
116.0034247787533
 20
121.2959114725288
 30
0.0
  0
VERTEX
  5
4DB
  8
NONE
 10
115.8720641592843
 20
121.2730962070421
 30
0.0
  0
VERTEX
  5
4DC
  8
NONE
 10
115.7390442477799
 20
121.2654911185465
 30
0.0
  0
VERTEX
  5
4DD
  8
NONE
 10
115.6132837389303
 20
121.2712295035023
 30
0.0
  0
VERTEX
  5
4DE
  8
NONE
 10
115.5059137168064
 20
121.2884446583695
 30
0.0
  0
VERTEX
  5
4DF
  8
NONE
 10
115.4169341814082
 20
121.3171365831483
 30
0.0
  0
VERTEX
  5
4E0
  8
NONE
 10
115.3463451327356
 20
121.3573052778386
 30
0.0
  0
VERTEX
  5
4E1
  8
NONE
 10
115.2926255530896
 20
121.404387689343
 30
0.0
  0
VERTEX
  5
4E2
  8
NONE
 10
115.254254424771
 20
121.4538207645642
 30
0.0
  0
VERTEX
  5
4E3
  8
NONE
 10
115.2312317477799
 20
121.5056045035023
 30
0.0
  0
VERTEX
  5
4E4
  8
NONE
 10
115.2235575221162
 20
121.5597389061572
 30
0.0
  0
VERTEX
  5
4E5
  8
NONE
 10
115.2362787610542
 20
121.6180906760687
 30
0.0
  0
VERTEX
  5
4E6
  8
NONE
 10
115.2744424778684
 20
121.6692521804934
 30
0.0
  0
VERTEX
  5
4E7
  8
NONE
 10
115.3319646017622
 20
121.7049269592545
 30
0.0
  0
VERTEX
  5
4E8
  8
NONE
 10
115.4027610619392
 20
121.7168185521749
 30
0.0
  0
VERTEX
  5
4E9
  8
NONE
 10
115.4566880530896
 20
121.7123937734138
 30
0.0
  0
VERTEX
  5
4EA
  8
NONE
 10
115.5034247787533
 20
121.6991194371306
 30
0.0
  0
VERTEX
  5
4EB
  8
NONE
 10
115.5617765486648
 20
121.667592888458
 30
0.0
  0
VERTEX
  5
4EC
  8
NONE
 10
115.6505486725586
 20
121.6084114725288
 30
0.0
  0
VERTEX
  5
4ED
  8
NONE
 10
115.7337898230011
 20
121.5580796141217
 30
0.0
  0
VERTEX
  5
4EE
  8
NONE
 10
115.8175840707887
 20
121.5221282866881
 30
0.0
  0
VERTEX
  5
4EF
  8
NONE
 10
115.9019314159215
 20
121.5005574902279
 30
0.0
  0
VERTEX
  5
4F0
  8
NONE
 10
115.9868318583993
 20
121.4933672247412
 30
0.0
  0
VERTEX
  5
4F1
  8
NONE
 10
116.1123158185763
 20
121.5056045035023
 30
0.0
  0
VERTEX
  5
4F2
  8
NONE
 10
116.2299181415852
 20
121.5423163397855
 30
0.0
  0
VERTEX
  5
4F3
  8
NONE
 10
116.3396388274259
 20
121.6035027335908
 30
0.0
  0
VERTEX
  5
4F4
  8
NONE
 10
116.4414778760985
 20
121.6891636849182
 30
0.0
  0
VERTEX
  5
4F5
  8
NONE
 10
116.5271388274259
 20
121.7923854769536
 30
0.0
  0
VERTEX
  5
4F6
  8
NONE
 10
116.5883252212312
 20
121.9062543928828
 30
0.0
  0
VERTEX
  5
4F7
  8
NONE
 10
116.6250370575144
 20
122.0307704327058
 30
0.0
  0
VERTEX
  5
4F8
  8
NONE
 10
116.6372743362754
 20
122.1659335964226
 30
0.0
  0
VERTEX
  5
4F9
  8
NONE
 10
116.6263506637091
 20
122.2997140167766
 30
0.0
  0
VERTEX
  5
4FA
  8
NONE
 10
116.5935796460099
 20
122.4289313840333
 30
0.0
  0
VERTEX
  5
4FB
  8
NONE
 10
116.5389612831781
 20
122.5535856981925
 30
0.0
  0
VERTEX
  5
4FC
  8
NONE
 10
116.4624955752135
 20
122.6736769592545
 30
0.0
  0
VERTEX
  5
4FD
  8
NONE
 10
116.3668097345055
 20
122.784780388458
 30
0.0
  0
VERTEX
  5
4FE
  8
NONE
 10
116.2545309734436
 20
122.8824712070421
 30
0.0
  0
VERTEX
  5
4FF
  8
NONE
 10
116.1256592920277
 20
122.9667494150067
 30
0.0
  0
VERTEX
  5
500
  8
NONE
 10
115.9801946902577
 20
123.0376150123518
 30
0.0
  0
VERTEX
  5
501
  8
NONE
 10
115.8486957964524
 20
123.082139348635
 30
0.0
  0
VERTEX
  5
502
  8
NONE
 10
115.6953495575144
 20
123.1161548353607
 30
0.0
  0
VERTEX
  5
503
  8
NONE
 10
115.5201559734436
 20
123.1396614725288
 30
0.0
  0
VERTEX
  5
504
  8
NONE
 10
115.32311504424
 20
123.1526592601395
 30
0.0
  0
VERTEX
  5
505
  8
NONE
 10
115.8983362831781
 20
124.3185884636793
 30
0.0
  0
SEQEND
  5
A25
  8
NONE
  0
POLYLINE
  5
A0
  8
NONE
 66
     1
 10
0.0
 20
0.0
 30
0.0
 70
     1
  0
VERTEX
  5
506
  8
NONE
 10
119.3032035398153
 20
124.3805353663341
 30
0.0
  0
VERTEX
  5
507
  8
NONE
 10
119.3032035398153
 20
124.2986769592545
 30
0.0
  0
VERTEX
  5
508
  8
NONE
 10
119.1638921460099
 20
124.2806321583695
 30
0.0
  0
VERTEX
  5
509
  8
NONE
 10
119.0379933628241
 20
124.2552588176616
 30
0.0
  0
VERTEX
  5
50A
  8
NONE
 10
118.9255071902577
 20
124.2225569371306
 30
0.0
  0
VERTEX
  5
50B
  8
NONE
 10
118.8264336283108
 20
124.1825265167766
 30
0.0
  0
VERTEX
  5
50C
  8
NONE
 10
118.7343429203462
 20
124.1330934415554
 30
0.0
  0
VERTEX
  5
50D
  8
NONE
 10
118.6428053097268
 20
124.0721835964226
 30
0.0
  0
VERTEX
  5
50E
  8
NONE
 10
118.5518207964524
 20
123.9997969813784
 30
0.0
  0
VERTEX
  5
50F
  8
NONE
 10
118.4613893805232
 20
123.9159335964226
 30
0.0
  0
VERTEX
  5
510
  8
NONE
 10
118.3751061946825
 20
123.8237737512899
 30
0.0
  0
VERTEX
  5
511
  8
NONE
 10
118.2965663716737
 20
123.7264977557147
 30
0.0
  0
VERTEX
  5
512
  8
NONE
 10
118.2257699114967
 20
123.624105609697
 30
0.0
  0
VERTEX
  5
513
  8
NONE
 10
118.1627168141515
 20
123.5165973132368
 30
0.0
  0
VERTEX
  5
514
  8
NONE
 10
118.1059551991073
 20
123.4013456539448
 30
0.0
  0
VERTEX
  5
515
  8
NONE
 10
118.054033185833
 20
123.2757234194315
 30
0.0
  0
VERTEX
  5
516
  8
NONE
 10
118.0069507743285
 20
123.139730609697
 30
0.0
  0
VERTEX
  5
517
  8
NONE
 10
117.964707964594
 20
122.9933672247412
 30
0.0
  0
VERTEX
  5
518
  8
NONE
 10
118.1241382743285
 20
123.0891913397855
 30
0.0
  0
VERTEX
  5
519
  8
NONE
 10
118.2838451327356
 20
123.1576371362457
 30
0.0
  0
VERTEX
  5
51A
  8
NONE
 10
118.4438285398153
 20
123.1987046141218
 30
0.0
  0
VERTEX
  5
51B
  8
NONE
 10
118.6040884955675
 20
123.2123937734138
 30
0.0
  0
VERTEX
  5
51C
  8
NONE
 10
118.6796899889303
 20
123.2085220919979
 30
0.0
  0
VERTEX
  5
51D
  8
NONE
 10
118.7527334070719
 20
123.1969070477501
 30
0.0
  0
VERTEX
  5
51E
  8
NONE
 10
118.8232187499922
 20
123.1775486406704
 30
0.0
  0
VERTEX
  5
51F
  8
NONE
 10
118.8911460176914
 20
123.1504468707589
 30
0.0
  0
VERTEX
  5
520
  8
NONE
 10
118.9565152101692
 20
123.1156017380156
 30
0.0
  0
VERTEX
  5
521
  8
NONE
 10
119.0193263274259
 20
123.0730132424403
 30
0.0
  0
VERTEX
  5
522
  8
NONE
 10
119.1372743362754
 20
122.9646061627943
 30
0.0
  0
VERTEX
  5
523
  8
NONE
 10
119.1901642699038
 20
122.9004468707589
 30
0.0
  0
VERTEX
  5
524
  8
NONE
 10
119.2360022123816
 20
122.8318627999625
 30
0.0
  0
VERTEX
  5
525
  8
NONE
 10
119.2747881637091
 20
122.7588539504049
 30
0.0
  0
VERTEX
  5
526
  8
NONE
 10
119.3065221238861
 20
122.6814203220864
 30
0.0
  0
VERTEX
  5
527
  8
NONE
 10
119.3312040929126
 20
122.5995619150067
 30
0.0
  0
VERTEX
  5
528
  8
NONE
 10
119.3488340707887
 20
122.513278729166
 30
0.0
  0
VERTEX
  5
529
  8
NONE
 10
119.3629380530896
 20
122.3274380212014
 30
0.0
  0
VERTEX
  5
52A
  8
NONE
 10
119.3486957964524
 20
122.1435331539448
 30
0.0
  0
VERTEX
  5
52B
  8
NONE
 10
119.3059690265409
 20
121.9679247468651
 30
0.0
  0
VERTEX
  5
52C
  8
NONE
 10
119.2347577433551
 20
121.8006127999625
 30
0.0
  0
VERTEX
  5
52D
  8
NONE
 10
119.1350619468949
 20
121.6415973132368
 30
0.0
  0
VERTEX
  5
52E
  8
NONE
 10
119.0637123893728
 20
121.5534474238563
 30
0.0
  0
VERTEX
  5
52F
  8
NONE
 10
118.9868318583993
 20
121.4770508530598
 30
0.0
  0
VERTEX
  5
530
  8
NONE
 10
118.9044203539745
 20
121.4124076008474
 30
0.0
  0
VERTEX
  5
531
  8
NONE
 10
118.8164778760984
 20
121.3595176672191
 30
0.0
  0
VERTEX
  5
532
  8
NONE
 10
118.723004424771
 20
121.3183810521749
 30
0.0
  0
VERTEX
  5
533
  8
NONE
 10
118.6239999999923
 20
121.2889977557147
 30
0.0
  0
VERTEX
  5
534
  8
NONE
 10
118.5194646017622
 20
121.2713677778386
 30
0.0
  0
VERTEX
  5
535
  8
NONE
 10
118.4093982300807
 20
121.2654911185465
 30
0.0
  0
VERTEX
  5
536
  8
NONE
 10
118.2614446902577
 20
121.2782123574846
 30
0.0
  0
VERTEX
  5
537
  8
NONE
 10
118.1251061946825
 20
121.3163760742987
 30
0.0
  0
VERTEX
  5
538
  8
NONE
 10
118.0003827433551
 20
121.379982268989
 30
0.0
  0
VERTEX
  5
539
  8
NONE
 10
117.8872743362754
 20
121.4690309415554
 30
0.0
  0
VERTEX
  5
53A
  8
NONE
 10
117.7887538716736
 20
121.5716996362457
 30
0.0
  0
VERTEX
  5
53B
  8
NONE
 10
117.7033694690188
 20
121.6816968707589
 30
0.0
  0
VERTEX
  5
53C
  8
NONE
 10
117.6311211283108
 20
121.7990226450952
 30
0.0
  0
VERTEX
  5
53D
  8
NONE
 10
117.5720088495498
 20
121.9236769592545
 30
0.0
  0
VERTEX
  5
53E
  8
NONE
 10
117.5260326327356
 20
122.0556598132368
 30
0.0
  0
VERTEX
  5
53F
  8
NONE
 10
117.4931924778683
 20
122.1949712070421
 30
0.0
  0
VERTEX
  5
540
  8
NONE
 10
117.473488384948
 20
122.3416111406704
 30
0.0
  0
VERTEX
  5
541
  8
NONE
 10
117.4669203539745
 20
122.4955796141218
 30
0.0
  0
VERTEX
  5
542
  8
NONE
 10
117.4770143805232
 20
122.694418109697
 30
0.0
  0
VERTEX
  5
543
  8
NONE
 10
117.5072964601692
 20
122.888278729166
 30
0.0
  0
VERTEX
  5
544
  8
NONE
 10
117.5577665929126
 20
123.0771614725288
 30
0.0
  0
VERTEX
  5
545
  8
NONE
 10
117.6284247787533
 20
123.2610663397855
 30
0.0
  0
VERTEX
  5
546
  8
NONE
 10
117.7178191371604
 20
123.4373661185465
 30
0.0
  0
VERTEX
  5
547
  8
NONE
 10
117.8244977876029
 20
123.6034335964226
 30
0.0
  0
VERTEX
  5
548
  8
NONE
 10
117.9484607300807
 20
123.7592687734138
 30
0.0
  0
VERTEX
  5
549
  8
NONE
 10
118.089707964594
 20
123.90487164952
 30
0.0
  0
VERTEX
  5
54A
  8
NONE
 10
118.2380071902577
 20
124.0338816052722
 30
0.0
  0
VERTEX
  5
54B
  8
NONE
 10
118.3831261061869
 20
124.1399380212014
 30
0.0
  0
VERTEX
  5
54C
  8
NONE
 10
118.5250647123816
 20
124.2230408973076
 30
0.0
  0
VERTEX
  5
54D
  8
NONE
 10
118.6638230088418
 20
124.2831902335908
 30
0.0
  0
VERTEX
  5
54E
  8
NONE
 10
118.7986404867179
 20
124.325778729166
 30
0.0
  0
VERTEX
  5
54F
  8
NONE
 10
118.9287566371604
 20
124.3561990831483
 30
0.0
  0
VERTEX
  5
550
  8
NONE
 10
119.0541714601692
 20
124.3744512955377
 30
0.0
  0
VERTEX
  5
551
  8
NONE
 10
119.1748849557445
 20
124.3805353663341
 30
0.0
  0
SEQEND
  5
A26
  8
NONE
  0
POLYLINE
  5
A1
  8
NONE
 66
     1
 10
0.0
 20
0.0
 30
0.0
 70
     1
  0
VERTEX
  5
552
  8
NONE
 10
117.927097345125
 20
122.8318627999625
 30
0.0
  0
VERTEX
  5
553
  8
NONE
 10
117.8972300884878
 20
122.5619512955377
 30
0.0
  0
VERTEX
  5
554
  8
NONE
 10
117.8872743362754
 20
122.3495619150067
 30
0.0
  0
VERTEX
  5
555
  8
NONE
 10
117.8921830752135
 20
122.2410856981925
 30
0.0
  0
VERTEX
  5
556
  8
NONE
 10
117.9069092920276
 20
122.128046428281
 30
0.0
  0
VERTEX
  5
557
  8
NONE
 10
117.9314529867179
 20
122.0104441052722
 30
0.0
  0
VERTEX
  5
558
  8
NONE
 10
117.9658141592843
 20
121.888278729166
 30
0.0
  0
VERTEX
  5
559
  8
NONE
 10
118.0098545353905
 20
121.7702615831483
 30
0.0
  0
VERTEX
  5
55A
  8
NONE
 10
118.0634358407002
 20
121.6651039504049
 30
0.0
  0
VERTEX
  5
55B
  8
NONE
 10
118.1265580752135
 20
121.5728058309359
 30
0.0
  0
VERTEX
  5
55C
  8
NONE
 10
118.1992212389303
 20
121.4933672247412
 30
0.0
  0
VERTEX
  5
55D
  8
NONE
 10
118.2586792035321
 20
121.4478749681041
 30
0.0
  0
VERTEX
  5
55E
  8
NONE
 10
118.3242212389303
 20
121.4153804990775
 30
0.0
  0
VERTEX
  5
55F
  8
NONE
 10
118.395847345125
 20
121.3958838176616
 30
0.0
  0
VERTEX
  5
560
  8
NONE
 10
118.4735575221161
 20
121.3893849238563
 30
0.0
  0
VERTEX
  5
561
  8
NONE
 10
118.567238384948
 20
121.4007234194315
 30
0.0
  0
VERTEX
  5
562
  8
NONE
 10
118.6558030973374
 20
121.4347389061572
 30
0.0
  0
VERTEX
  5
563
  8
NONE
 10
118.7392516592843
 20
121.4914313840333
 30
0.0
  0
VERTEX
  5
564
  8
NONE
 10
118.8175840707887
 20
121.5708008530598
 30
0.0
  0
VERTEX
  5
565
  8
NONE
 10
118.8838866150365
 20
121.6711880212014
 30
0.0
  0
VERTEX
  5
566
  8
NONE
 10
118.9312455752135
 20
121.7909335964226
 30
0.0
  0
VERTEX
  5
567
  8
NONE
 10
118.9596609513197
 20
121.9300375787235
 30
0.0
  0
VERTEX
  5
568
  8
NONE
 10
118.9691327433551
 20
122.0884999681041
 30
0.0
  0
VERTEX
  5
569
  8
NONE
 10
118.9597300884878
 20
122.2712986406704
 30
0.0
  0
VERTEX
  5
56A
  8
NONE
 10
118.9315221238861
 20
122.4413760742987
 30
0.0
  0
VERTEX
  5
56B
  8
NONE
 10
118.8845088495498
 20
122.598732268989
 30
0.0
  0
VERTEX
  5
56C
  8
NONE
 10
118.818690265479
 20
122.7433672247412
 30
0.0
  0
VERTEX
  5
56D
  8
NONE
 10
118.7791092367179
 20
122.808183319874
 30
0.0
  0
VERTEX
  5
56E
  8
NONE
 10
118.7355873893728
 20
122.864357268989
 30
0.0
  0
VERTEX
  5
56F
  8
NONE
 10
118.6881247234436
 20
122.9118890720864
 30
0.0
  0
VERTEX
  5
570
  8
NONE
 10
118.6367212389303
 20
122.950778729166
 30
0.0
  0
VERTEX
  5
571
  8
NONE
 10
118.581376935833
 20
122.9810262402279
 30
0.0
  0
VERTEX
  5
572
  8
NONE
 10
118.5220918141515
 20
123.0026316052722
 30
0.0
  0
VERTEX
  5
573
  8
NONE
 10
118.4588658738861
 20
123.0155948242987
 30
0.0
  0
VERTEX
  5
574
  8
NONE
 10
118.3916991150365
 20
123.0199158973076
 30
0.0
  0
VERTEX
  5
575
  8
NONE
 10
118.3045862831781
 20
123.0110663397855
 30
0.0
  0
VERTEX
  5
576
  8
NONE
 10
118.2113893805232
 20
122.9845176672191
 30
0.0
  0
VERTEX
  5
577
  8
NONE
 10
118.0921969026471
 20
122.9286548353607
 30
0.0
  0
SEQEND
  5
A27
  8
NONE
  0
POLYLINE
  5
A2
  8
NONE
 66
     1
 10
0.0
 20
0.0
 30
0.0
 70
     1
  0
VERTEX
  5
578
  8
NONE
 10
120.1040884955675
 20
121.7477920035023
 30
0.0
  0
VERTEX
  5
579
  8
NONE
 10
120.1540055309657
 20
121.7432980875731
 30
0.0
  0
VERTEX
  5
57A
  8
NONE
 10
120.1997743362755
 20
121.7298163397855
 30
0.0
  0
VERTEX
  5
57B
  8
NONE
 10
120.2413949114967
 20
121.7073467601395
 30
0.0
  0
VERTEX
  5
57C
  8
NONE
 10
120.2788672566294
 20
121.675889348635
 30
0.0
  0
VERTEX
  5
57D
  8
NONE
 10
120.3098407079569
 20
121.6380713176616
 30
0.0
  0
VERTEX
  5
57E
  8
NONE
 10
120.3319646017622
 20
121.5965198796085
 30
0.0
  0
VERTEX
  5
57F
  8
NONE
 10
120.3452389380454
 20
121.5512350344757
 30
0.0
  0
VERTEX
  5
580
  8
NONE
 10
120.3496637168064
 20
121.5022167822633
 30
0.0
  0
VERTEX
  5
581
  8
NONE
 10
120.3451698008772
 20
121.453198530051
 30
0.0
  0
VERTEX
  5
582
  8
NONE
 10
120.3316880530896
 20
121.4079136849182
 30
0.0
  0
VERTEX
  5
583
  8
NONE
 10
120.3092184734436
 20
121.3663622468651
 30
0.0
  0
VERTEX
  5
584
  8
NONE
 10
120.2777610619392
 20
121.3285442158917
 30
0.0
  0
VERTEX
  5
585
  8
NONE
 10
120.2399430309657
 20
121.2970868043872
 30
0.0
  0
VERTEX
  5
586
  8
NONE
 10
120.1983915929126
 20
121.2746172247412
 30
0.0
  0
VERTEX
  5
587
  8
NONE
 10
120.1531067477799
 20
121.2611354769536
 30
0.0
  0
VERTEX
  5
588
  8
NONE
 10
120.1040884955675
 20
121.2566415610244
 30
0.0
  0
VERTEX
  5
589
  8
NONE
 10
120.0550702433551
 20
121.2611354769536
 30
0.0
  0
VERTEX
  5
58A
  8
NONE
 10
120.0097853982223
 20
121.2746172247412
 30
0.0
  0
VERTEX
  5
58B
  8
NONE
 10
119.9682339601692
 20
121.2970868043872
 30
0.0
  0
VERTEX
  5
58C
  8
NONE
 10
119.9304159291958
 20
121.3285442158917
 30
0.0
  0
VERTEX
  5
58D
  8
NONE
 10
119.8989585176914
 20
121.3663622468651
 30
0.0
  0
VERTEX
  5
58E
  8
NONE
 10
119.8764889380454
 20
121.4079136849182
 30
0.0
  0
VERTEX
  5
58F
  8
NONE
 10
119.8630071902577
 20
121.453198530051
 30
0.0
  0
VERTEX
  5
590
  8
NONE
 10
119.8585132743285
 20
121.5022167822633
 30
0.0
  0
VERTEX
  5
591
  8
NONE
 10
119.8630071902577
 20
121.5521338176616
 30
0.0
  0
VERTEX
  5
592
  8
NONE
 10
119.8764889380454
 20
121.5979026229713
 30
0.0
  0
VERTEX
  5
593
  8
NONE
 10
119.8989585176914
 20
121.6395231981925
 30
0.0
  0
VERTEX
  5
594
  8
NONE
 10
119.9304159291958
 20
121.6769955433253
 30
0.0
  0
VERTEX
  5
595
  8
NONE
 10
119.9682339601692
 20
121.7079689946527
 30
0.0
  0
VERTEX
  5
596
  8
NONE
 10
120.0097853982223
 20
121.730092888458
 30
0.0
  0
VERTEX
  5
597
  8
NONE
 10
120.0550702433551
 20
121.7433672247412
 30
0.0
  0
SEQEND
  5
A28
  8
NONE
  0
POLYLINE
  5
A3
  8
NONE
 66
     1
 10
0.0
 20
0.0
 30
0.0
 70
     1
  0
VERTEX
  5
598
  8
NONE
 10
120.8341769911427
 20
122.800889348635
 30
0.0
  0
VERTEX
  5
599
  8
NONE
 10
120.8438561946825
 20
123.0486078220864
 30
0.0
  0
VERTEX
  5
59A
  8
NONE
 10
120.872893805302
 20
123.2784889061572
 30
0.0
  0
VERTEX
  5
59B
  8
NONE
 10
120.9212898230011
 20
123.4905326008474
 30
0.0
  0
VERTEX
  5
59C
  8
NONE
 10
120.9890442477799
 20
123.6847389061572
 30
0.0
  0
VERTEX
  5
59D
  8
NONE
 10
121.0728384955675
 20
123.8582040610244
 30
0.0
  0
VERTEX
  5
59E
  8
NONE
 10
121.1693539822931
 20
124.0080243043872
 30
0.0
  0
VERTEX
  5
59F
  8
NONE
 10
121.2785907079569
 20
124.1341996362457
 30
0.0
  0
VERTEX
  5
5A0
  8
NONE
 10
121.4005486725586
 20
124.2367300565996
 30
0.0
  0
VERTEX
  5
5A1
  8
NONE
 10
121.5009358407002
 20
124.2996448796085
 30
0.0
  0
VERTEX
  5
5A2
  8
NONE
 10
121.6029823008772
 20
124.3445840389005
 30
0.0
  0
VERTEX
  5
5A3
  8
NONE
 10
121.7066880530896
 20
124.3715475344757
 30
0.0
  0
VERTEX
  5
5A4
  8
NONE
 10
121.8120530973374
 20
124.3805353663341
 30
0.0
  0
VERTEX
  5
5A5
  8
NONE
 10
121.8972300884878
 20
124.3750389614669
 30
0.0
  0
VERTEX
  5
5A6
  8
NONE
 10
121.9801946902577
 20
124.3585497468651
 30
0.0
  0
VERTEX
  5
5A7
  8
NONE
 10
122.0609469026471
 20
124.3310677225288
 30
0.0
  0
VERTEX
  5
5A8
  8
NONE
 10
122.139486725656
 20
124.292592888458
 30
0.0
  0
VERTEX
  5
5A9
  8
NONE
 10
122.2158141592843
 20
124.2431252446527
 30
0.0
  0
VERTEX
  5
5AA
  8
NONE
 10
122.2899292035321
 20
124.1826647911129
 30
0.0
  0
VERTEX
  5
5AB
  8
NONE
 10
122.3618318583993
 20
124.1112115278386
 30
0.0
  0
VERTEX
  5
5AC
  8
NONE
 10
122.4315221238861
 20
124.0287654548297
 30
0.0
  0
VERTEX
  5
5AD
  8
NONE
 10
122.5118940818507
 20
123.9149656760687
 30
0.0
  0
VERTEX
  5
5AE
  8
NONE
 10
122.5815497787533
 20
123.7914866937678
 30
0.0
  0
VERTEX
  5
5AF
  8
NONE
 10
122.640489214594
 20
123.6583285079271
 30
0.0
  0
VERTEX
  5
5B0
  8
NONE
 10
122.6887123893728
 20
123.5154911185465
 30
0.0
  0
VERTEX
  5
5B1
  8
NONE
 10
122.7262193030896
 20
123.3629745256262
 30
0.0
  0
VERTEX
  5
5B2
  8
NONE
 10
122.7530099557445
 20
123.200778729166
 30
0.0
  0
VERTEX
  5
5B3
  8
NONE
 10
122.7690843473374
 20
123.028903729166
 30
0.0
  0
VERTEX
  5
5B4
  8
NONE
 10
122.7744424778683
 20
122.8473495256262
 30
0.0
  0
VERTEX
  5
5B5
  8
NONE
 10
122.7650398230011
 20
122.5961050565996
 30
0.0
  0
VERTEX
  5
5B6
  8
NONE
 10
122.7368318583993
 20
122.3644955433253
 30
0.0
  0
VERTEX
  5
5B7
  8
NONE
 10
122.689818584063
 20
122.1525209858032
 30
0.0
  0
VERTEX
  5
5B8
  8
NONE
 10
122.6239999999923
 20
121.9601813840333
 30
0.0
  0
VERTEX
  5
5B9
  8
NONE
 10
122.5435934734436
 20
121.7901730875731
 30
0.0
  0
VERTEX
  5
5BA
  8
NONE
 10
122.4528163716737
 20
121.6451924459802
 30
0.0
  0
VERTEX
  5
5BB
  8
NONE
 10
122.3516686946825
 20
121.5252394592545
 30
0.0
  0
VERTEX
  5
5BC
  8
NONE
 10
122.2401504424701
 20
121.4303141273961
 30
0.0
  0
VERTEX
  5
5BD
  8
NONE
 10
122.1244839601692
 20
121.3582040610244
 30
0.0
  0
VERTEX
  5
5BE
  8
NONE
 10
122.0108915929126
 20
121.3066968707589
 30
0.0
  0
VERTEX
  5
5BF
  8
NONE
 10
121.8993733407002
 20
121.2757925565996
 30
0.0
  0
VERTEX
  5
5C0
  8
NONE
 10
121.7899292035321
 20
121.2654911185465
 30
0.0
  0
VERTEX
  5
5C1
  8
NONE
 10
121.6848752765409
 20
121.2734073242987
 30
0.0
  0
VERTEX
  5
5C2
  8
NONE
 10
121.584315265479
 20
121.2971559415554
 30
0.0
  0
VERTEX
  5
5C3
  8
NONE
 10
121.4882491703462
 20
121.3367369703165
 30
0.0
  0
VERTEX
  5
5C4
  8
NONE
 10
121.3966769911427
 20
121.3921504105819
 30
0.0
  0
VERTEX
  5
5C5
  8
NONE
 10
121.3095987278683
 20
121.4633962623518
 30
0.0
  0
VERTEX
  5
5C6
  8
NONE
 10
121.2270143805232
 20
121.5504745256262
 30
0.0
  0
VERTEX
  5
5C7
  8
NONE
 10
121.1489239491073
 20
121.653385200405
 30
0.0
  0
VERTEX
  5
5C8
  8
NONE
 10
121.0753274336206
 20
121.7721282866881
 30
0.0
  0
VERTEX
  5
5C9
  8
NONE
 10
121.0188077986648
 20
121.8816069924403
 30
0.0
  0
VERTEX
  5
5CA
  8
NONE
 10
120.9698241150365
 20
121.9965475344757
 30
0.0
  0
VERTEX
  5
5CB
  8
NONE
 10
120.9283763827356
 20
122.1169499127943
 30
0.0
  0
VERTEX
  5
5CC
  8
NONE
 10
120.8944646017622
 20
122.2428141273961
 30
0.0
  0
VERTEX
  5
5CD
  8
NONE
 10
120.8680887721162
 20
122.374140178281
 30
0.0
  0
VERTEX
  5
5CE
  8
NONE
 10
120.8492488937976
 20
122.5109280654492
 30
0.0
  0
VERTEX
  5
5CF
  8
NONE
 10
120.8379449668064
 20
122.6531777889005
 30
0.0
  0
SEQEND
  5
A29
  8
NONE
  0
POLYLINE
  5
A4
  8
NONE
 66
     1
 10
0.0
 20
0.0
 30
0.0
 70
     1
  0
VERTEX
  5
5D0
  8
NONE
 10
121.2678053097268
 20
122.7455796141218
 30
0.0
  0
VERTEX
  5
5D1
  8
NONE
 10
121.2773462389303
 20
122.4500873574846
 30
0.0
  0
VERTEX
  5
5D2
  8
NONE
 10
121.3059690265409
 20
122.1830796141218
 30
0.0
  0
VERTEX
  5
5D3
  8
NONE
 10
121.3536736725586
 20
121.9445563840333
 30
0.0
  0
VERTEX
  5
5D4
  8
NONE
 10
121.4204601769834
 20
121.7345176672191
 30
0.0
  0
VERTEX
  5
5D5
  8
NONE
 10
121.4539225663639
 20
121.6572568818209
 30
0.0
  0
VERTEX
  5
5D6
  8
NONE
 10
121.4912566371604
 20
121.5902975344757
 30
0.0
  0
VERTEX
  5
5D7
  8
NONE
 10
121.5324623893728
 20
121.5336396251837
 30
0.0
  0
VERTEX
  5
5D8
  8
NONE
 10
121.5775398230011
 20
121.4872831539448
 30
0.0
  0
VERTEX
  5
5D9
  8
NONE
 10
121.6264889380454
 20
121.4512281207589
 30
0.0
  0
VERTEX
  5
5DA
  8
NONE
 10
121.6793097345055
 20
121.4254745256262
 30
0.0
  0
VERTEX
  5
5DB
  8
NONE
 10
121.7360022123816
 20
121.4100223685465
 30
0.0
  0
VERTEX
  5
5DC
  8
NONE
 10
121.7965663716737
 20
121.40487164952
 30
0.0
  0
VERTEX
  5
5DD
  8
NONE
 10
121.8568539822931
 20
121.4115779548297
 30
0.0
  0
VERTEX
  5
5DE
  8
NONE
 10
121.9182477876029
 20
121.4316968707589
 30
0.0
  0
VERTEX
  5
5DF
  8
NONE
 10
121.9807477876029
 20
121.4652283973076
 30
0.0
  0
VERTEX
  5
5E0
  8
NONE
 10
122.0443539822931
 20
121.5121725344757
 30
0.0
  0
VERTEX
  5
5E1
  8
NONE
 10
122.1046415929126
 20
121.5748799459802
 30
0.0
  0
VERTEX
  5
5E2
  8
NONE
 10
122.1571858407002
 20
121.6557012955377
 30
0.0
  0
VERTEX
  5
5E3
  8
NONE
 10
122.201986725656
 20
121.7546365831483
 30
0.0
  0
VERTEX
  5
5E4
  8
NONE
 10
122.2390442477799
 20
121.871685808812
 30
0.0
  0
VERTEX
  5
5E5
  8
NONE
 10
122.283568584063
 20
122.0814479769536
 30
0.0
  0
VERTEX
  5
5E6
  8
NONE
 10
122.3153716814082
 20
122.3302035079271
 30
0.0
  0
VERTEX
  5
5E7
  8
NONE
 10
122.3344535398153
 20
122.6179524017324
 30
0.0
  0
VERTEX
  5
5E8
  8
NONE
 10
122.3408141592843
 20
122.9446946583695
 30
0.0
  0
VERTEX
  5
5E9
  8
NONE
 10
122.3341769911427
 20
123.1906847026173
 30
0.0
  0
VERTEX
  5
5EA
  8
NONE
 10
122.3142654867179
 20
123.4153804990775
 30
0.0
  0
VERTEX
  5
5EB
  8
NONE
 10
122.2810796460099
 20
123.6187820477501
 30
0.0
  0
VERTEX
  5
5EC
  8
NONE
 10
122.2346194690188
 20
123.800889348635
 30
0.0
  0
VERTEX
  5
5ED
  8
NONE
 10
122.1918926991073
 20
123.9188373574846
 30
0.0
  0
VERTEX
  5
5EE
  8
NONE
 10
122.1433584070719
 20
124.0182566052722
 30
0.0
  0
VERTEX
  5
5EF
  8
NONE
 10
122.0890165929126
 20
124.0991470919978
 30
0.0
  0
VERTEX
  5
5F0
  8
NONE
 10
122.0288672566294
 20
124.1615088176616
 30
0.0
  0
VERTEX
  5
5F1
  8
NONE
 10
121.9811626106117
 20
124.193450189343
 30
0.0
  0
VERTEX
  5
5F2
  8
NONE
 10
121.9287566371604
 20
124.2162654548297
 30
0.0
  0
VERTEX
  5
5F3
  8
NONE
 10
121.8716493362754
 20
124.2299546141218
 30
0.0
  0
VERTEX
  5
5F4
  8
NONE
 10
121.8098407079569
 20
124.2345176672191
 30
0.0
  0
VERTEX
  5
5F5
  8
NONE
 10
121.736693584063
 20
124.2260829327058
 30
0.0
  0
VERTEX
  5
5F6
  8
NONE
 10
121.6676946902577
 20
124.200778729166
 30
0.0
  0
VERTEX
  5
5F7
  8
NONE
 10
121.6028440265409
 20
124.1586050565996
 30
0.0
  0
VERTEX
  5
5F8
  8
NONE
 10
121.5421415929126
 20
124.0995619150067
 30
0.0
  0
VERTEX
  5
5F9
  8
NONE
 10
121.4688561946825
 20
123.9946116937678
 30
0.0
  0
VERTEX
  5
5FA
  8
NONE
 10
121.4082920353905
 20
123.863389348635
 30
0.0
  0
VERTEX
  5
5FB
  8
NONE
 10
121.3604491150365
 20
123.7058948796085
 30
0.0
  0
VERTEX
  5
5FC
  8
NONE
 10
121.3253274336206
 20
123.5221282866881
 30
0.0
  0
VERTEX
  5
5FD
  8
NONE
 10
121.2821858407002
 20
123.1310884636793
 30
0.0
  0
SEQEND
  5
A2A
  8
NONE
  0
POLYLINE
  5
A5
  8
NONE
 66
     1
 10
0.0
 20
0.0
 30
0.0
  0
VERTEX
  5
5FE
  8
NONE
 10
93.4249999999951
 20
122.8805353663358
 30
0.0
  0
VERTEX
  5
5FF
  8
NONE
 10
113.2235575221162
 20
122.8805353663345
 30
0.0
  0
SEQEND
  5
A2B
  8
NONE
  0
POLYLINE
  5
A6
  8
NONE
 66
     1
 10
0.0
 20
0.0
 30
0.0
  0
VERTEX
  5
600
  8
NONE
 10
124.7744424778683
 20
122.8805353663338
 30
0.0
  0
VERTEX
  5
601
  8
NONE
 10
144.5729999999894
 20
122.8805353663324
 30
0.0
  0
SEQEND
  5
A2C
  8
NONE
  0
POLYLINE
  5
A7
  8
NONE
 66
     1
 10
0.0
 20
0.0
 30
0.0
  0
VERTEX
  5
602
  8
NONE
 10
90.99799999999642
 20
142.6289999999941
 30
0.0
  0
VERTEX
  5
603
  8
NONE
 10
90.997999999995
 20
121.380535366336
 30
0.0
  0
SEQEND
  5
A2D
  8
NONE
  0
POLYLINE
  5
A8
  8
NONE
 66
     1
 10
0.0
 20
0.0
 30
0.0
  0
VERTEX
  5
604
  8
NONE
 10
146.9999999999907
 20
142.6289999999903
 30
0.0
  0
VERTEX
  5
605
  8
NONE
 10
146.9999999999893
 20
121.3805353663323
 30
0.0
  0
SEQEND
  5
A2E
  8
NONE
  0
POLYLINE
  5
A9
  8
NONE
 66
     1
 10
0.0
 20
0.0
 30
0.0
 70
     1
  0
VERTEX
  5
606
  8
NONE
 10
77.427
 20
289.1926698427842
 30
0.0
  0
VERTEX
  5
607
  8
NONE
 10
75.0
 20
289.9426698427842
 30
0.0
  0
VERTEX
  5
608
  8
NONE
 10
77.427
 20
290.6926698427842
 30
0.0
  0
SEQEND
  5
A2F
  8
NONE
  0
POLYLINE
  5
AA
  8
NONE
 66
     1
 10
0.0
 20
0.0
 30
0.0
 70
     1
  0
VERTEX
  5
609
  8
NONE
 10
160.573
 20
290.6926698427842
 30
0.0
  0
VERTEX
  5
60A
  8
NONE
 10
163.0
 20
289.9426698427842
 30
0.0
  0
VERTEX
  5
60B
  8
NONE
 10
160.573
 20
289.1926698427842
 30
0.0
  0
SEQEND
  5
A30
  8
NONE
  0
POLYLINE
  5
AB
  8
NONE
 66
     1
 10
0.0
 20
0.0
 30
0.0
 70
     1
  0
VERTEX
  5
60C
  8
NONE
 10
115.8484513274336
 20
289.891784887032
 30
0.0
  0
VERTEX
  5
60D
  8
NONE
 10
115.6861863938053
 20
290.0306123206603
 30
0.0
  0
VERTEX
  5
60E
  8
NONE
 10
115.5555862831858
 20
290.1550592233152
 30
0.0
  0
VERTEX
  5
60F
  8
NONE
 10
115.4566509955752
 20
290.2651255949966
 30
0.0
  0
VERTEX
  5
610
  8
NONE
 10
115.3893805309735
 20
290.3608114357045
 30
0.0
  0
VERTEX
  5
611
  8
NONE
 10
115.3443722345133
 20
290.4501366569435
 30
0.0
  0
VERTEX
  5
612
  8
NONE
 10
115.3122234513274
 20
290.5411211702178
 30
0.0
  0
VERTEX
  5
613
  8
NONE
 10
115.2929341814159
 20
290.6337649755276
 30
0.0
  0
VERTEX
  5
614
  8
NONE
 10
115.2865044247788
 20
290.7280680728727
 30
0.0
  0
VERTEX
  5
615
  8
NONE
 10
115.3006084070796
 20
290.8690387587134
 30
0.0
  0
VERTEX
  5
616
  8
NONE
 10
115.3429203539823
 20
290.9999154180055
 30
0.0
  0
VERTEX
  5
617
  8
NONE
 10
115.4134402654867
 20
291.1206980507488
 30
0.0
  0
VERTEX
  5
618
  8
NONE
 10
115.5121681415929
 20
291.2313866569435
 30
0.0
  0
VERTEX
  5
619
  8
NONE
 10
115.5709001659292
 20
291.2809061536249
 30
0.0
  0
VERTEX
  5
61A
  8
NONE
 10
115.634264380531
 20
291.3238230507488
 30
0.0
  0
VERTEX
  5
61B
  8
NONE
 10
115.7022607853982
 20
291.3601373483152
 30
0.0
  0
VERTEX
  5
61C
  8
NONE
 10
115.774889380531
 20
291.389849046324
 30
0.0
  0
VERTEX
  5
61D
  8
NONE
 10
115.8521501659292
 20
291.4129581447754
 30
0.0
  0
VERTEX
  5
61E
  8
NONE
 10
115.9340431415929
 20
291.4294646436692
 30
0.0
  0
VERTEX
  5
61F
  8
NONE
 10
116.1117256637168
 20
291.4426698427842
 30
0.0
  0
VERTEX
  5
620
  8
NONE
 10
116.2842920353982
 20
291.430363426855
 30
0.0
  0
VERTEX
  5
621
  8
NONE
 10
116.4391592920354
 20
291.3934441790674
 30
0.0
  0
VERTEX
  5
622
  8
NONE
 10
116.5763274336283
 20
291.3319120994213
 30
0.0
  0
VERTEX
  5
623
  8
NONE
 10
116.6382743362832
 20
291.2919162476514
 30
0.0
  0
VERTEX
  5
624
  8
NONE
 10
116.695796460177
 20
291.245767187917
 30
0.0
  0
VERTEX
  5
625
  8
NONE
 10
116.7925884955752
 20
291.1438590020762
 30
0.0
  0
VERTEX
  5
626
  8
NONE
 10
116.8617256637168
 20
291.0350370994214
 30
0.0
  0
VERTEX
  5
627
  8
NONE
 10
116.9032079646018
 20
290.9193014799523
 30
0.0
  0
VERTEX
  5
628
  8
NONE
 10
116.9170353982301
 20
290.7966521436691
 30
0.0
  0
VERTEX
  5
629
  8
NONE
 10
116.9095685840708
 20
290.7121665242001
 30
0.0
  0
VERTEX
  5
62A
  8
NONE
 10
116.8871681415929
 20
290.6268512587134
 30
0.0
  0
VERTEX
  5
62B
  8
NONE
 10
116.8498340707965
 20
290.540706347209
 30
0.0
  0
VERTEX
  5
62C
  8
NONE
 10
116.7975663716814
 20
290.4537317896869
 30
0.0
  0
VERTEX
  5
62D
  8
NONE
 10
116.7216537610619
 20
290.3624707277399
 30
0.0
  0
VERTEX
  5
62E
  8
NONE
 10
116.6133849557522
 20
290.2634663029612
 30
0.0
  0
VERTEX
  5
62F
  8
NONE
 10
116.4727599557522
 20
290.1567185153506
 30
0.0
  0
VERTEX
  5
630
  8
NONE
 10
116.2997787610619
 20
290.0422273649081
 30
0.0
  0
VERTEX
  5
631
  8
NONE
 10
116.478014380531
 20
289.8998047985364
 30
0.0
  0
VERTEX
  5
632
  8
NONE
 10
116.6233407079646
 20
289.7734220551736
 30
0.0
  0
VERTEX
  5
633
  8
NONE
 10
116.7357577433628
 20
289.6630791348196
 30
0.0
  0
VERTEX
  5
634
  8
NONE
 10
116.8152654867257
 20
289.5687760374744
 30
0.0
  0
VERTEX
  5
635
  8
NONE
 10
116.8888274336283
 20
289.4544231613683
 30
0.0
  0
VERTEX
  5
636
  8
NONE
 10
116.9413716814159
 20
289.3370282498638
 30
0.0
  0
VERTEX
  5
637
  8
NONE
 10
116.9728982300885
 20
289.2165913029611
 30
0.0
  0
VERTEX
  5
638
  8
NONE
 10
116.983407079646
 20
289.0931123206603
 30
0.0
  0
VERTEX
  5
639
  8
NONE
 10
116.9796391039823
 20
289.0154539965453
 30
0.0
  0
VERTEX
  5
63A
  8
NONE
 10
116.9683351769911
 20
288.9406648649081
 30
0.0
  0
VERTEX
  5
63B
  8
NONE
 10
116.9494952986726
 20
288.8687449257488
 30
0.0
  0
VERTEX
  5
63C
  8
NONE
 10
116.9231194690265
 20
288.7996941790674
 30
0.0
  0
VERTEX
  5
63D
  8
NONE
 10
116.8892076880531
 20
288.7335126248639
 30
0.0
  0
VERTEX
  5
63E
  8
NONE
 10
116.8477599557522
 20
288.6702002631382
 30
0.0
  0
VERTEX
  5
63F
  8
NONE
 10
116.7987762721239
 20
288.6097570938904
 30
0.0
  0
VERTEX
  5
640
  8
NONE
 10
116.7422566371681
 20
288.5521831171205
 30
0.0
  0
VERTEX
  5
641
  8
NONE
 10
116.6796183628318
 20
288.4995524478726
 30
0.0
  0
VERTEX
  5
642
  8
NONE
 10
116.6122787610619
 20
288.4539392011912
 30
0.0
  0
VERTEX
  5
643
  8
NONE
 10
116.5402378318584
 20
288.4153433770762
 30
0.0
  0
VERTEX
  5
644
  8
NONE
 10
116.4634955752212
 20
288.3837649755275
 30
0.0
  0
VERTEX
  5
645
  8
NONE
 10
116.3820519911504
 20
288.3592039965452
 30
0.0
  0
VERTEX
  5
646
  8
NONE
 10
116.295907079646
 20
288.3416604401293
 30
0.0
  0
VERTEX
  5
647
  8
NONE
 10
116.1095132743363
 20
288.3276255949966
 30
0.0
  0
VERTEX
  5
648
  8
NONE
 10
116.0057038163717
 20
288.3318083936692
 30
0.0
  0
VERTEX
  5
649
  8
NONE
 10
115.9077710176991
 20
288.3443567896869
 30
0.0
  0
VERTEX
  5
64A
  8
NONE
 10
115.8157148783186
 20
288.3652707830497
 30
0.0
  0
VERTEX
  5
64B
  8
NONE
 10
115.7295353982301
 20
288.3945503737576
 30
0.0
  0
VERTEX
  5
64C
  8
NONE
 10
115.6492325774336
 20
288.4321955618108
 30
0.0
  0
VERTEX
  5
64D
  8
NONE
 10
115.5748064159292
 20
288.478206347209
 30
0.0
  0
VERTEX
  5
64E
  8
NONE
 10
115.5062569137168
 20
288.5325827299524
 30
0.0
  0
VERTEX
  5
64F
  8
NONE
 10
115.4435840707965
 20
288.5953247100408
 30
0.0
  0
VERTEX
  5
650
  8
NONE
 10
115.360342920354
 20
288.7051145330497
 30
0.0
  0
VERTEX
  5
651
  8
NONE
 10
115.3008849557522
 20
288.8198822321647
 30
0.0
  0
VERTEX
  5
652
  8
NONE
 10
115.2652101769911
 20
288.9396278073859
 30
0.0
  0
VERTEX
  5
653
  8
NONE
 10
115.2533185840708
 20
289.0643512587134
 30
0.0
  0
VERTEX
  5
654
  8
NONE
 10
115.2616841814159
 20
289.1637013693329
 30
0.0
  0
VERTEX
  5
655
  8
NONE
 10
115.2867809734513
 20
289.2626366569435
 30
0.0
  0
VERTEX
  5
656
  8
NONE
 10
115.328608960177
 20
289.3611571215453
 30
0.0
  0
VERTEX
  5
657
  8
NONE
 10
115.3871681415929
 20
289.4592627631382
 30
0.0
  0
VERTEX
  5
658
  8
NONE
 10
115.4661919247788
 20
289.5597190684479
 30
0.0
  0
VERTEX
  5
659
  8
NONE
 10
115.5694137168142
 20
289.6652915242001
 30
0.0
  0
VERTEX
  5
65A
  8
NONE
 10
115.6968335176991
 20
289.7759801303948
 30
0.0
  0
SEQEND
  5
A31
  8
NONE
  0
POLYLINE
  5
AC
  8
NONE
 66
     1
 10
0.0
 20
0.0
 30
0.0
 70
     1
  0
VERTEX
  5
65B
  8
NONE
 10
116.195796460177
 20
290.1285105507488
 30
0.0
  0
VERTEX
  5
65C
  8
NONE
 10
116.3163716814159
 20
290.2416880949965
 30
0.0
  0
VERTEX
  5
65D
  8
NONE
 10
116.412610619469
 20
290.3422826746425
 30
0.0
  0
VERTEX
  5
65E
  8
NONE
 10
116.4845132743363
 20
290.4302942896868
 30
0.0
  0
VERTEX
  5
65F
  8
NONE
 10
116.5320796460177
 20
290.5057229401293
 30
0.0
  0
VERTEX
  5
660
  8
NONE
 10
116.5630530973451
 20
290.5771416348196
 30
0.0
  0
VERTEX
  5
661
  8
NONE
 10
116.5851769911504
 20
290.6531233826072
 30
0.0
  0
VERTEX
  5
662
  8
NONE
 10
116.5984513274336
 20
290.7336681834921
 30
0.0
  0
VERTEX
  5
663
  8
NONE
 10
116.6028761061947
 20
290.8187760374744
 30
0.0
  0
VERTEX
  5
664
  8
NONE
 10
116.594717920354
 20
290.9286349976514
 30
0.0
  0
VERTEX
  5
665
  8
NONE
 10
116.5702433628318
 20
291.0259109932267
 30
0.0
  0
VERTEX
  5
666
  8
NONE
 10
116.5294524336283
 20
291.1106040242001
 30
0.0
  0
VERTEX
  5
667
  8
NONE
 10
116.4723451327434
 20
291.1827140905718
 30
0.0
  0
VERTEX
  5
668
  8
NONE
 10
116.4011338495575
 20
291.2403053516338
 30
0.0
  0
VERTEX
  5
669
  8
NONE
 10
116.3180309734513
 20
291.281441966678
 30
0.0
  0
VERTEX
  5
66A
  8
NONE
 10
116.2230365044248
 20
291.3061239357045
 30
0.0
  0
VERTEX
  5
66B
  8
NONE
 10
116.1161504424779
 20
291.3143512587134
 30
0.0
  0
VERTEX
  5
66C
  8
NONE
 10
116.0085730088496
 20
291.3061930728727
 30
0.0
  0
VERTEX
  5
66D
  8
NONE
 10
115.9115044247787
 20
291.2817185153506
 30
0.0
  0
VERTEX
  5
66E
  8
NONE
 10
115.8249446902655
 20
291.2409275861471
 30
0.0
  0
VERTEX
  5
66F
  8
NONE
 10
115.7488938053097
 20
291.1838202852621
 30
0.0
  0
VERTEX
  5
670
  8
NONE
 10
115.6869469026549
 20
291.1157893118108
 30
0.0
  0
VERTEX
  5
671
  8
NONE
 10
115.6426991150443
 20
291.0422273649081
 30
0.0
  0
VERTEX
  5
672
  8
NONE
 10
115.6161504424779
 20
290.9631344445542
 30
0.0
  0
VERTEX
  5
673
  8
NONE
 10
115.6073008849557
 20
290.8785105507488
 30
0.0
  0
VERTEX
  5
674
  8
NONE
 10
115.6219579646018
 20
290.7634663029612
 30
0.0
  0
VERTEX
  5
675
  8
NONE
 10
115.6659292035398
 20
290.6484220551736
 30
0.0
  0
VERTEX
  5
676
  8
NONE
 10
115.7370022123894
 20
290.5361432941116
 30
0.0
  0
VERTEX
  5
677
  8
NONE
 10
115.8329646017699
 20
290.429395506501
 30
0.0
  0
SEQEND
  5
A32
  8
NONE
  0
POLYLINE
  5
AD
  8
NONE
 66
     1
 10
0.0
 20
0.0
 30
0.0
 70
     1
  0
VERTEX
  5
678
  8
NONE
 10
115.9524336283186
 20
289.8077140905718
 30
0.0
  0
VERTEX
  5
679
  8
NONE
 10
115.8665652654867
 20
289.7285520330497
 30
0.0
  0
VERTEX
  5
67A
  8
NONE
 10
115.7925884955752
 20
289.6459331171205
 30
0.0
  0
VERTEX
  5
67B
  8
NONE
 10
115.7305033185841
 20
289.5598573427842
 30
0.0
  0
VERTEX
  5
67C
  8
NONE
 10
115.6803097345133
 20
289.4703247100408
 30
0.0
  0
VERTEX
  5
67D
  8
NONE
 10
115.641592920354
 20
289.3771969445541
 30
0.0
  0
VERTEX
  5
67E
  8
NONE
 10
115.6139380530973
 20
289.2803357719877
 30
0.0
  0
VERTEX
  5
67F
  8
NONE
 10
115.5973451327434
 20
289.1797411923417
 30
0.0
  0
VERTEX
  5
680
  8
NONE
 10
115.591814159292
 20
289.075413205616
 30
0.0
  0
VERTEX
  5
681
  8
NONE
 10
115.6015625
 20
288.9398352188904
 30
0.0
  0
VERTEX
  5
682
  8
NONE
 10
115.6308075221239
 20
288.8184994888019
 30
0.0
  0
VERTEX
  5
683
  8
NONE
 10
115.6795492256637
 20
288.7114060153506
 30
0.0
  0
VERTEX
  5
684
  8
NONE
 10
115.7477876106195
 20
288.6185547985364
 30
0.0
  0
VERTEX
  5
685
  8
NONE
 10
115.8310978982301
 20
288.5435409711027
 30
0.0
  0
VERTEX
  5
686
  8
NONE
 10
115.9250553097345
 20
288.489959665793
 30
0.0
  0
VERTEX
  5
687
  8
NONE
 10
116.0296598451327
 20
288.4578108826072
 30
0.0
  0
VERTEX
  5
688
  8
NONE
 10
116.1449115044248
 20
288.4470946215453
 30
0.0
  0
VERTEX
  5
689
  8
NONE
 10
116.2584347345133
 20
288.4555293560585
 30
0.0
  0
VERTEX
  5
68A
  8
NONE
 10
116.3600663716814
 20
288.4808335595984
 30
0.0
  0
VERTEX
  5
68B
  8
NONE
 10
116.4498064159292
 20
288.5230072321647
 30
0.0
  0
VERTEX
  5
68C
  8
NONE
 10
116.5276548672566
 20
288.5820503737576
 30
0.0
  0
VERTEX
  5
68D
  8
NONE
 10
116.5905696902655
 20
288.6531233826071
 30
0.0
  0
VERTEX
  5
68E
  8
NONE
 10
116.6355088495575
 20
288.7313866569435
 30
0.0
  0
VERTEX
  5
68F
  8
NONE
 10
116.6624723451327
 20
288.8168401967665
 30
0.0
  0
VERTEX
  5
690
  8
NONE
 10
116.6714601769911
 20
288.9094840020762
 30
0.0
  0
VERTEX
  5
691
  8
NONE
 10
116.6662057522124
 20
288.9870559047311
 30
0.0
  0
VERTEX
  5
692
  8
NONE
 10
116.6504424778761
 20
289.0604795772974
 30
0.0
  0
VERTEX
  5
693
  8
NONE
 10
116.6241703539823
 20
289.1297550197753
 30
0.0
  0
VERTEX
  5
694
  8
NONE
 10
116.587389380531
 20
289.1948822321647
 30
0.0
  0
VERTEX
  5
695
  8
NONE
 10
116.4887997787611
 20
289.3211267011912
 30
0.0
  0
VERTEX
  5
696
  8
NONE
 10
116.350110619469
 20
289.4653468339346
 30
0.0
  0
VERTEX
  5
697
  8
NONE
 10
116.1713219026549
 20
289.6275426303947
 30
0.0
  0
SEQEND
  5
A33
  8
NONE
  0
POLYLINE
  5
AE
  8
NONE
 66
     1
 10
0.0
 20
0.0
 30
0.0
 70
     1
  0
VERTEX
  5
698
  8
NONE
 10
118.1139380530973
 20
289.891784887032
 30
0.0
  0
VERTEX
  5
699
  8
NONE
 10
117.951673119469
 20
290.0306123206603
 30
0.0
  0
VERTEX
  5
69A
  8
NONE
 10
117.8210730088496
 20
290.1550592233152
 30
0.0
  0
VERTEX
  5
69B
  8
NONE
 10
117.722137721239
 20
290.2651255949966
 30
0.0
  0
VERTEX
  5
69C
  8
NONE
 10
117.6548672566372
 20
290.3608114357045
 30
0.0
  0
VERTEX
  5
69D
  8
NONE
 10
117.609858960177
 20
290.4501366569435
 30
0.0
  0
VERTEX
  5
69E
  8
NONE
 10
117.5777101769911
 20
290.5411211702178
 30
0.0
  0
VERTEX
  5
69F
  8
NONE
 10
117.5584209070796
 20
290.6337649755276
 30
0.0
  0
VERTEX
  5
6A0
  8
NONE
 10
117.5519911504425
 20
290.7280680728727
 30
0.0
  0
VERTEX
  5
6A1
  8
NONE
 10
117.5660951327434
 20
290.8690387587134
 30
0.0
  0
VERTEX
  5
6A2
  8
NONE
 10
117.608407079646
 20
290.9999154180055
 30
0.0
  0
VERTEX
  5
6A3
  8
NONE
 10
117.6789269911504
 20
291.1206980507488
 30
0.0
  0
VERTEX
  5
6A4
  8
NONE
 10
117.7776548672566
 20
291.2313866569435
 30
0.0
  0
VERTEX
  5
6A5
  8
NONE
 10
117.8363868915929
 20
291.2809061536249
 30
0.0
  0
VERTEX
  5
6A6
  8
NONE
 10
117.8997511061947
 20
291.3238230507488
 30
0.0
  0
VERTEX
  5
6A7
  8
NONE
 10
117.9677475110619
 20
291.3601373483152
 30
0.0
  0
VERTEX
  5
6A8
  8
NONE
 10
118.0403761061947
 20
291.389849046324
 30
0.0
  0
VERTEX
  5
6A9
  8
NONE
 10
118.1176368915929
 20
291.4129581447754
 30
0.0
  0
VERTEX
  5
6AA
  8
NONE
 10
118.1995298672566
 20
291.4294646436692
 30
0.0
  0
VERTEX
  5
6AB
  8
NONE
 10
118.3772123893805
 20
291.4426698427842
 30
0.0
  0
VERTEX
  5
6AC
  8
NONE
 10
118.5497787610619
 20
291.430363426855
 30
0.0
  0
VERTEX
  5
6AD
  8
NONE
 10
118.7046460176991
 20
291.3934441790674
 30
0.0
  0
VERTEX
  5
6AE
  8
NONE
 10
118.841814159292
 20
291.3319120994213
 30
0.0
  0
VERTEX
  5
6AF
  8
NONE
 10
118.9037610619469
 20
291.2919162476514
 30
0.0
  0
VERTEX
  5
6B0
  8
NONE
 10
118.9612831858407
 20
291.245767187917
 30
0.0
  0
VERTEX
  5
6B1
  8
NONE
 10
119.0580752212389
 20
291.1438590020762
 30
0.0
  0
VERTEX
  5
6B2
  8
NONE
 10
119.1272123893805
 20
291.0350370994214
 30
0.0
  0
VERTEX
  5
6B3
  8
NONE
 10
119.1686946902655
 20
290.9193014799523
 30
0.0
  0
VERTEX
  5
6B4
  8
NONE
 10
119.1825221238938
 20
290.7966521436691
 30
0.0
  0
VERTEX
  5
6B5
  8
NONE
 10
119.1750553097345
 20
290.7121665242001
 30
0.0
  0
VERTEX
  5
6B6
  8
NONE
 10
119.1526548672566
 20
290.6268512587134
 30
0.0
  0
VERTEX
  5
6B7
  8
NONE
 10
119.1153207964602
 20
290.540706347209
 30
0.0
  0
VERTEX
  5
6B8
  8
NONE
 10
119.0630530973451
 20
290.4537317896869
 30
0.0
  0
VERTEX
  5
6B9
  8
NONE
 10
118.9871404867257
 20
290.3624707277399
 30
0.0
  0
VERTEX
  5
6BA
  8
NONE
 10
118.8788716814159
 20
290.2634663029612
 30
0.0
  0
VERTEX
  5
6BB
  8
NONE
 10
118.7382466814159
 20
290.1567185153506
 30
0.0
  0
VERTEX
  5
6BC
  8
NONE
 10
118.5652654867257
 20
290.0422273649081
 30
0.0
  0
VERTEX
  5
6BD
  8
NONE
 10
118.7435011061947
 20
289.8998047985364
 30
0.0
  0
VERTEX
  5
6BE
  8
NONE
 10
118.8888274336283
 20
289.7734220551736
 30
0.0
  0
VERTEX
  5
6BF
  8
NONE
 10
119.0012444690265
 20
289.6630791348196
 30
0.0
  0
VERTEX
  5
6C0
  8
NONE
 10
119.0807522123894
 20
289.5687760374744
 30
0.0
  0
VERTEX
  5
6C1
  8
NONE
 10
119.1543141592921
 20
289.4544231613683
 30
0.0
  0
VERTEX
  5
6C2
  8
NONE
 10
119.2068584070797
 20
289.3370282498638
 30
0.0
  0
VERTEX
  5
6C3
  8
NONE
 10
119.2383849557522
 20
289.2165913029611
 30
0.0
  0
VERTEX
  5
6C4
  8
NONE
 10
119.2488938053097
 20
289.0931123206603
 30
0.0
  0
VERTEX
  5
6C5
  8
NONE
 10
119.245125829646
 20
289.0154539965453
 30
0.0
  0
VERTEX
  5
6C6
  8
NONE
 10
119.2338219026549
 20
288.9406648649081
 30
0.0
  0
VERTEX
  5
6C7
  8
NONE
 10
119.2149820243363
 20
288.8687449257488
 30
0.0
  0
VERTEX
  5
6C8
  8
NONE
 10
119.1886061946903
 20
288.7996941790674
 30
0.0
  0
VERTEX
  5
6C9
  8
NONE
 10
119.1546944137168
 20
288.7335126248639
 30
0.0
  0
VERTEX
  5
6CA
  8
NONE
 10
119.1132466814159
 20
288.6702002631382
 30
0.0
  0
VERTEX
  5
6CB
  8
NONE
 10
119.0642629977876
 20
288.6097570938904
 30
0.0
  0
VERTEX
  5
6CC
  8
NONE
 10
119.0077433628319
 20
288.5521831171205
 30
0.0
  0
VERTEX
  5
6CD
  8
NONE
 10
118.9451050884956
 20
288.4995524478726
 30
0.0
  0
VERTEX
  5
6CE
  8
NONE
 10
118.8777654867257
 20
288.4539392011912
 30
0.0
  0
VERTEX
  5
6CF
  8
NONE
 10
118.8057245575221
 20
288.4153433770762
 30
0.0
  0
VERTEX
  5
6D0
  8
NONE
 10
118.728982300885
 20
288.3837649755275
 30
0.0
  0
VERTEX
  5
6D1
  8
NONE
 10
118.6475387168142
 20
288.3592039965452
 30
0.0
  0
VERTEX
  5
6D2
  8
NONE
 10
118.5613938053097
 20
288.3416604401293
 30
0.0
  0
VERTEX
  5
6D3
  8
NONE
 10
118.375
 20
288.3276255949966
 30
0.0
  0
VERTEX
  5
6D4
  8
NONE
 10
118.2711905420354
 20
288.3318083936692
 30
0.0
  0
VERTEX
  5
6D5
  8
NONE
 10
118.1732577433628
 20
288.3443567896869
 30
0.0
  0
VERTEX
  5
6D6
  8
NONE
 10
118.0812016039823
 20
288.3652707830497
 30
0.0
  0
VERTEX
  5
6D7
  8
NONE
 10
117.9950221238938
 20
288.3945503737576
 30
0.0
  0
VERTEX
  5
6D8
  8
NONE
 10
117.9147193030973
 20
288.4321955618108
 30
0.0
  0
VERTEX
  5
6D9
  8
NONE
 10
117.8402931415929
 20
288.478206347209
 30
0.0
  0
VERTEX
  5
6DA
  8
NONE
 10
117.7717436393805
 20
288.5325827299524
 30
0.0
  0
VERTEX
  5
6DB
  8
NONE
 10
117.7090707964602
 20
288.5953247100408
 30
0.0
  0
VERTEX
  5
6DC
  8
NONE
 10
117.6258296460177
 20
288.7051145330497
 30
0.0
  0
VERTEX
  5
6DD
  8
NONE
 10
117.5663716814159
 20
288.8198822321647
 30
0.0
  0
VERTEX
  5
6DE
  8
NONE
 10
117.5306969026549
 20
288.9396278073859
 30
0.0
  0
VERTEX
  5
6DF
  8
NONE
 10
117.5188053097345
 20
289.0643512587134
 30
0.0
  0
VERTEX
  5
6E0
  8
NONE
 10
117.5271709070797
 20
289.1637013693329
 30
0.0
  0
VERTEX
  5
6E1
  8
NONE
 10
117.552267699115
 20
289.2626366569435
 30
0.0
  0
VERTEX
  5
6E2
  8
NONE
 10
117.5940956858407
 20
289.3611571215453
 30
0.0
  0
VERTEX
  5
6E3
  8
NONE
 10
117.6526548672566
 20
289.4592627631382
 30
0.0
  0
VERTEX
  5
6E4
  8
NONE
 10
117.7316786504425
 20
289.5597190684479
 30
0.0
  0
VERTEX
  5
6E5
  8
NONE
 10
117.8349004424779
 20
289.6652915242001
 30
0.0
  0
VERTEX
  5
6E6
  8
NONE
 10
117.9623202433628
 20
289.7759801303948
 30
0.0
  0
SEQEND
  5
A34
  8
NONE
  0
POLYLINE
  5
AF
  8
NONE
 66
     1
 10
0.0
 20
0.0
 30
0.0
 70
     1
  0
VERTEX
  5
6E7
  8
NONE
 10
118.4612831858407
 20
290.1285105507488
 30
0.0
  0
VERTEX
  5
6E8
  8
NONE
 10
118.5818584070797
 20
290.2416880949965
 30
0.0
  0
VERTEX
  5
6E9
  8
NONE
 10
118.6780973451328
 20
290.3422826746425
 30
0.0
  0
VERTEX
  5
6EA
  8
NONE
 10
118.75
 20
290.4302942896868
 30
0.0
  0
VERTEX
  5
6EB
  8
NONE
 10
118.7975663716814
 20
290.5057229401293
 30
0.0
  0
VERTEX
  5
6EC
  8
NONE
 10
118.8285398230089
 20
290.5771416348196
 30
0.0
  0
VERTEX
  5
6ED
  8
NONE
 10
118.8506637168142
 20
290.6531233826072
 30
0.0
  0
VERTEX
  5
6EE
  8
NONE
 10
118.8639380530974
 20
290.7336681834921
 30
0.0
  0
VERTEX
  5
6EF
  8
NONE
 10
118.8683628318584
 20
290.8187760374744
 30
0.0
  0
VERTEX
  5
6F0
  8
NONE
 10
118.8602046460177
 20
290.9286349976514
 30
0.0
  0
VERTEX
  5
6F1
  8
NONE
 10
118.8357300884956
 20
291.0259109932267
 30
0.0
  0
VERTEX
  5
6F2
  8
NONE
 10
118.794939159292
 20
291.1106040242001
 30
0.0
  0
VERTEX
  5
6F3
  8
NONE
 10
118.7378318584071
 20
291.1827140905718
 30
0.0
  0
VERTEX
  5
6F4
  8
NONE
 10
118.6666205752212
 20
291.2403053516338
 30
0.0
  0
VERTEX
  5
6F5
  8
NONE
 10
118.583517699115
 20
291.281441966678
 30
0.0
  0
VERTEX
  5
6F6
  8
NONE
 10
118.4885232300885
 20
291.3061239357045
 30
0.0
  0
VERTEX
  5
6F7
  8
NONE
 10
118.3816371681416
 20
291.3143512587134
 30
0.0
  0
VERTEX
  5
6F8
  8
NONE
 10
118.2740597345133
 20
291.3061930728727
 30
0.0
  0
VERTEX
  5
6F9
  8
NONE
 10
118.1769911504425
 20
291.2817185153506
 30
0.0
  0
VERTEX
  5
6FA
  8
NONE
 10
118.0904314159292
 20
291.2409275861471
 30
0.0
  0
VERTEX
  5
6FB
  8
NONE
 10
118.0143805309735
 20
291.1838202852621
 30
0.0
  0
VERTEX
  5
6FC
  8
NONE
 10
117.9524336283186
 20
291.1157893118108
 30
0.0
  0
VERTEX
  5
6FD
  8
NONE
 10
117.908185840708
 20
291.0422273649081
 30
0.0
  0
VERTEX
  5
6FE
  8
NONE
 10
117.8816371681416
 20
290.9631344445542
 30
0.0
  0
VERTEX
  5
6FF
  8
NONE
 10
117.8727876106195
 20
290.8785105507488
 30
0.0
  0
VERTEX
  5
700
  8
NONE
 10
117.8874446902655
 20
290.7634663029612
 30
0.0
  0
VERTEX
  5
701
  8
NONE
 10
117.9314159292035
 20
290.6484220551736
 30
0.0
  0
VERTEX
  5
702
  8
NONE
 10
118.0024889380531
 20
290.5361432941116
 30
0.0
  0
VERTEX
  5
703
  8
NONE
 10
118.0984513274336
 20
290.429395506501
 30
0.0
  0
SEQEND
  5
A35
  8
NONE
  0
POLYLINE
  5
B0
  8
NONE
 66
     1
 10
0.0
 20
0.0
 30
0.0
 70
     1
  0
VERTEX
  5
704
  8
NONE
 10
118.2179203539823
 20
289.8077140905718
 30
0.0
  0
VERTEX
  5
705
  8
NONE
 10
118.1320519911505
 20
289.7285520330497
 30
0.0
  0
VERTEX
  5
706
  8
NONE
 10
118.0580752212389
 20
289.6459331171205
 30
0.0
  0
VERTEX
  5
707
  8
NONE
 10
117.9959900442478
 20
289.5598573427842
 30
0.0
  0
VERTEX
  5
708
  8
NONE
 10
117.945796460177
 20
289.4703247100408
 30
0.0
  0
VERTEX
  5
709
  8
NONE
 10
117.9070796460177
 20
289.3771969445541
 30
0.0
  0
VERTEX
  5
70A
  8
NONE
 10
117.8794247787611
 20
289.2803357719877
 30
0.0
  0
VERTEX
  5
70B
  8
NONE
 10
117.8628318584071
 20
289.1797411923417
 30
0.0
  0
VERTEX
  5
70C
  8
NONE
 10
117.8573008849557
 20
289.075413205616
 30
0.0
  0
VERTEX
  5
70D
  8
NONE
 10
117.8670492256637
 20
288.9398352188904
 30
0.0
  0
VERTEX
  5
70E
  8
NONE
 10
117.8962942477876
 20
288.8184994888019
 30
0.0
  0
VERTEX
  5
70F
  8
NONE
 10
117.9450359513274
 20
288.7114060153506
 30
0.0
  0
VERTEX
  5
710
  8
NONE
 10
118.0132743362832
 20
288.6185547985364
 30
0.0
  0
VERTEX
  5
711
  8
NONE
 10
118.0965846238938
 20
288.5435409711027
 30
0.0
  0
VERTEX
  5
712
  8
NONE
 10
118.1905420353982
 20
288.489959665793
 30
0.0
  0
VERTEX
  5
713
  8
NONE
 10
118.2951465707965
 20
288.4578108826072
 30
0.0
  0
VERTEX
  5
714
  8
NONE
 10
118.4103982300885
 20
288.4470946215453
 30
0.0
  0
VERTEX
  5
715
  8
NONE
 10
118.523921460177
 20
288.4555293560585
 30
0.0
  0
VERTEX
  5
716
  8
NONE
 10
118.6255530973451
 20
288.4808335595984
 30
0.0
  0
VERTEX
  5
717
  8
NONE
 10
118.7152931415929
 20
288.5230072321647
 30
0.0
  0
VERTEX
  5
718
  8
NONE
 10
118.7931415929203
 20
288.5820503737576
 30
0.0
  0
VERTEX
  5
719
  8
NONE
 10
118.8560564159292
 20
288.6531233826071
 30
0.0
  0
VERTEX
  5
71A
  8
NONE
 10
118.9009955752212
 20
288.7313866569435
 30
0.0
  0
VERTEX
  5
71B
  8
NONE
 10
118.9279590707965
 20
288.8168401967665
 30
0.0
  0
VERTEX
  5
71C
  8
NONE
 10
118.9369469026549
 20
288.9094840020762
 30
0.0
  0
VERTEX
  5
71D
  8
NONE
 10
118.9316924778761
 20
288.9870559047311
 30
0.0
  0
VERTEX
  5
71E
  8
NONE
 10
118.9159292035398
 20
289.0604795772974
 30
0.0
  0
VERTEX
  5
71F
  8
NONE
 10
118.889657079646
 20
289.1297550197753
 30
0.0
  0
VERTEX
  5
720
  8
NONE
 10
118.8528761061947
 20
289.1948822321647
 30
0.0
  0
VERTEX
  5
721
  8
NONE
 10
118.7542865044248
 20
289.3211267011912
 30
0.0
  0
VERTEX
  5
722
  8
NONE
 10
118.6155973451328
 20
289.4653468339346
 30
0.0
  0
VERTEX
  5
723
  8
NONE
 10
118.4368086283186
 20
289.6275426303947
 30
0.0
  0
SEQEND
  5
A36
  8
NONE
  0
POLYLINE
  5
B1
  8
NONE
 66
     1
 10
0.0
 20
0.0
 30
0.0
 70
     1
  0
VERTEX
  5
724
  8
NONE
 10
120.0763274336283
 20
288.8099264799523
 30
0.0
  0
VERTEX
  5
725
  8
NONE
 10
120.1262444690265
 20
288.8054325640231
 30
0.0
  0
VERTEX
  5
726
  8
NONE
 10
120.1720132743363
 20
288.7919508162355
 30
0.0
  0
VERTEX
  5
727
  8
NONE
 10
120.2136338495575
 20
288.7694812365895
 30
0.0
  0
VERTEX
  5
728
  8
NONE
 10
120.2511061946903
 20
288.7380238250851
 30
0.0
  0
VERTEX
  5
729
  8
NONE
 10
120.2820796460177
 20
288.7002057941116
 30
0.0
  0
VERTEX
  5
72A
  8
NONE
 10
120.304203539823
 20
288.6586543560585
 30
0.0
  0
VERTEX
  5
72B
  8
NONE
 10
120.3174778761062
 20
288.6133695109258
 30
0.0
  0
VERTEX
  5
72C
  8
NONE
 10
120.3219026548673
 20
288.5643512587134
 30
0.0
  0
VERTEX
  5
72D
  8
NONE
 10
120.3174087389381
 20
288.515333006501
 30
0.0
  0
VERTEX
  5
72E
  8
NONE
 10
120.3039269911504
 20
288.4700481613683
 30
0.0
  0
VERTEX
  5
72F
  8
NONE
 10
120.2814574115044
 20
288.4284967233152
 30
0.0
  0
VERTEX
  5
730
  8
NONE
 10
120.25
 20
288.3906786923417
 30
0.0
  0
VERTEX
  5
731
  8
NONE
 10
120.2121819690265
 20
288.3592212808373
 30
0.0
  0
VERTEX
  5
732
  8
NONE
 10
120.1706305309735
 20
288.3367517011912
 30
0.0
  0
VERTEX
  5
733
  8
NONE
 10
120.1253456858407
 20
288.3232699534036
 30
0.0
  0
VERTEX
  5
734
  8
NONE
 10
120.0763274336283
 20
288.3187760374744
 30
0.0
  0
VERTEX
  5
735
  8
NONE
 10
120.0273091814159
 20
288.3232699534036
 30
0.0
  0
VERTEX
  5
736
  8
NONE
 10
119.9820243362832
 20
288.3367517011912
 30
0.0
  0
VERTEX
  5
737
  8
NONE
 10
119.9404728982301
 20
288.3592212808373
 30
0.0
  0
VERTEX
  5
738
  8
NONE
 10
119.9026548672566
 20
288.3906786923417
 30
0.0
  0
VERTEX
  5
739
  8
NONE
 10
119.8711974557522
 20
288.4284967233152
 30
0.0
  0
VERTEX
  5
73A
  8
NONE
 10
119.8487278761062
 20
288.4700481613683
 30
0.0
  0
VERTEX
  5
73B
  8
NONE
 10
119.8352461283186
 20
288.515333006501
 30
0.0
  0
VERTEX
  5
73C
  8
NONE
 10
119.8307522123894
 20
288.5643512587134
 30
0.0
  0
VERTEX
  5
73D
  8
NONE
 10
119.8352461283186
 20
288.6142682941116
 30
0.0
  0
VERTEX
  5
73E
  8
NONE
 10
119.8487278761062
 20
288.6600370994213
 30
0.0
  0
VERTEX
  5
73F
  8
NONE
 10
119.8711974557522
 20
288.7016576746426
 30
0.0
  0
VERTEX
  5
740
  8
NONE
 10
119.9026548672566
 20
288.7391300197754
 30
0.0
  0
VERTEX
  5
741
  8
NONE
 10
119.9404728982301
 20
288.7701034711028
 30
0.0
  0
VERTEX
  5
742
  8
NONE
 10
119.9820243362832
 20
288.7922273649081
 30
0.0
  0
VERTEX
  5
743
  8
NONE
 10
120.0273091814159
 20
288.8055017011913
 30
0.0
  0
SEQEND
  5
A37
  8
NONE
  0
POLYLINE
  5
B2
  8
NONE
 66
     1
 10
0.0
 20
0.0
 30
0.0
 70
     1
  0
VERTEX
  5
744
  8
NONE
 10
120.8064159292036
 20
289.8630238250851
 30
0.0
  0
VERTEX
  5
745
  8
NONE
 10
120.8160951327434
 20
290.1107422985364
 30
0.0
  0
VERTEX
  5
746
  8
NONE
 10
120.8451327433628
 20
290.3406233826072
 30
0.0
  0
VERTEX
  5
747
  8
NONE
 10
120.893528761062
 20
290.5526670772974
 30
0.0
  0
VERTEX
  5
748
  8
NONE
 10
120.9612831858407
 20
290.7468733826072
 30
0.0
  0
VERTEX
  5
749
  8
NONE
 10
121.0450774336283
 20
290.9203385374745
 30
0.0
  0
VERTEX
  5
74A
  8
NONE
 10
121.141592920354
 20
291.0701587808373
 30
0.0
  0
VERTEX
  5
74B
  8
NONE
 10
121.2508296460177
 20
291.1963341126957
 30
0.0
  0
VERTEX
  5
74C
  8
NONE
 10
121.3727876106195
 20
291.2988645330497
 30
0.0
  0
VERTEX
  5
74D
  8
NONE
 10
121.4731747787611
 20
291.3617793560585
 30
0.0
  0
VERTEX
  5
74E
  8
NONE
 10
121.5752212389381
 20
291.4067185153505
 30
0.0
  0
VERTEX
  5
74F
  8
NONE
 10
121.6789269911504
 20
291.4336820109258
 30
0.0
  0
VERTEX
  5
750
  8
NONE
 10
121.7842920353982
 20
291.4426698427842
 30
0.0
  0
VERTEX
  5
751
  8
NONE
 10
121.8694690265487
 20
291.437173437917
 30
0.0
  0
VERTEX
  5
752
  8
NONE
 10
121.9524336283186
 20
291.4206842233152
 30
0.0
  0
VERTEX
  5
753
  8
NONE
 10
122.033185840708
 20
291.3932021989789
 30
0.0
  0
VERTEX
  5
754
  8
NONE
 10
122.1117256637168
 20
291.3547273649081
 30
0.0
  0
VERTEX
  5
755
  8
NONE
 10
122.1880530973452
 20
291.3052597211027
 30
0.0
  0
VERTEX
  5
756
  8
NONE
 10
122.2621681415929
 20
291.2447992675629
 30
0.0
  0
VERTEX
  5
757
  8
NONE
 10
122.3340707964602
 20
291.1733460042886
 30
0.0
  0
VERTEX
  5
758
  8
NONE
 10
122.4037610619469
 20
291.0908999312798
 30
0.0
  0
VERTEX
  5
759
  8
NONE
 10
122.4841330199115
 20
290.9771001525187
 30
0.0
  0
VERTEX
  5
75A
  8
NONE
 10
122.5537887168142
 20
290.8536211702178
 30
0.0
  0
VERTEX
  5
75B
  8
NONE
 10
122.6127281526549
 20
290.720462984377
 30
0.0
  0
VERTEX
  5
75C
  8
NONE
 10
122.6609513274336
 20
290.5776255949966
 30
0.0
  0
VERTEX
  5
75D
  8
NONE
 10
122.6984582411504
 20
290.4251090020762
 30
0.0
  0
VERTEX
  5
75E
  8
NONE
 10
122.7252488938053
 20
290.262913205616
 30
0.0
  0
VERTEX
  5
75F
  8
NONE
 10
122.7413232853982
 20
290.091038205616
 30
0.0
  0
VERTEX
  5
760
  8
NONE
 10
122.7466814159292
 20
289.9094840020762
 30
0.0
  0
VERTEX
  5
761
  8
NONE
 10
122.7372787610619
 20
289.6582395330496
 30
0.0
  0
VERTEX
  5
762
  8
NONE
 10
122.7090707964602
 20
289.4266300197753
 30
0.0
  0
VERTEX
  5
763
  8
NONE
 10
122.6620575221239
 20
289.2146554622532
 30
0.0
  0
VERTEX
  5
764
  8
NONE
 10
122.5962389380531
 20
289.0223158604833
 30
0.0
  0
VERTEX
  5
765
  8
NONE
 10
122.5158324115044
 20
288.8523075640231
 30
0.0
  0
VERTEX
  5
766
  8
NONE
 10
122.4250553097345
 20
288.7073269224302
 30
0.0
  0
VERTEX
  5
767
  8
NONE
 10
122.3239076327434
 20
288.5873739357045
 30
0.0
  0
VERTEX
  5
768
  8
NONE
 10
122.212389380531
 20
288.4924486038461
 30
0.0
  0
VERTEX
  5
769
  8
NONE
 10
122.0967228982301
 20
288.4203385374744
 30
0.0
  0
VERTEX
  5
76A
  8
NONE
 10
121.9831305309735
 20
288.3688313472089
 30
0.0
  0
VERTEX
  5
76B
  8
NONE
 10
121.8716122787611
 20
288.3379270330497
 30
0.0
  0
VERTEX
  5
76C
  8
NONE
 10
121.7621681415929
 20
288.3276255949966
 30
0.0
  0
VERTEX
  5
76D
  8
NONE
 10
121.6571142146018
 20
288.3355418007488
 30
0.0
  0
VERTEX
  5
76E
  8
NONE
 10
121.5565542035398
 20
288.3592904180055
 30
0.0
  0
VERTEX
  5
76F
  8
NONE
 10
121.4604881084071
 20
288.3988714467665
 30
0.0
  0
VERTEX
  5
770
  8
NONE
 10
121.3689159292036
 20
288.454284887032
 30
0.0
  0
VERTEX
  5
771
  8
NONE
 10
121.2818376659292
 20
288.5255307388019
 30
0.0
  0
VERTEX
  5
772
  8
NONE
 10
121.1992533185841
 20
288.6126090020763
 30
0.0
  0
VERTEX
  5
773
  8
NONE
 10
121.1211628871681
 20
288.715519676855
 30
0.0
  0
VERTEX
  5
774
  8
NONE
 10
121.0475663716814
 20
288.8342627631382
 30
0.0
  0
VERTEX
  5
775
  8
NONE
 10
120.9910467367257
 20
288.9437414688904
 30
0.0
  0
VERTEX
  5
776
  8
NONE
 10
120.9420630530974
 20
289.0586820109258
 30
0.0
  0
VERTEX
  5
777
  8
NONE
 10
120.9006153207965
 20
289.1790843892444
 30
0.0
  0
VERTEX
  5
778
  8
NONE
 10
120.866703539823
 20
289.3049486038461
 30
0.0
  0
VERTEX
  5
779
  8
NONE
 10
120.840327710177
 20
289.4362746547311
 30
0.0
  0
VERTEX
  5
77A
  8
NONE
 10
120.8214878318584
 20
289.5730625418992
 30
0.0
  0
VERTEX
  5
77B
  8
NONE
 10
120.8101839048673
 20
289.7153122653506
 30
0.0
  0
SEQEND
  5
A38
  8
NONE
  0
POLYLINE
  5
B3
  8
NONE
 66
     1
 10
0.0
 20
0.0
 30
0.0
 70
     1
  0
VERTEX
  5
77C
  8
NONE
 10
121.2400442477876
 20
289.8077140905718
 30
0.0
  0
VERTEX
  5
77D
  8
NONE
 10
121.2495851769912
 20
289.5122218339346
 30
0.0
  0
VERTEX
  5
77E
  8
NONE
 10
121.2782079646018
 20
289.2452140905717
 30
0.0
  0
VERTEX
  5
77F
  8
NONE
 10
121.3259126106195
 20
289.0066908604833
 30
0.0
  0
VERTEX
  5
780
  8
NONE
 10
121.3926991150443
 20
288.7966521436691
 30
0.0
  0
VERTEX
  5
781
  8
NONE
 10
121.4261615044248
 20
288.7193913582709
 30
0.0
  0
VERTEX
  5
782
  8
NONE
 10
121.4634955752212
 20
288.6524320109257
 30
0.0
  0
VERTEX
  5
783
  8
NONE
 10
121.5047013274336
 20
288.5957741016337
 30
0.0
  0
VERTEX
  5
784
  8
NONE
 10
121.549778761062
 20
288.5494176303948
 30
0.0
  0
VERTEX
  5
785
  8
NONE
 10
121.5987278761062
 20
288.513362597209
 30
0.0
  0
VERTEX
  5
786
  8
NONE
 10
121.6515486725664
 20
288.4876090020763
 30
0.0
  0
VERTEX
  5
787
  8
NONE
 10
121.7082411504425
 20
288.4721568449966
 30
0.0
  0
VERTEX
  5
788
  8
NONE
 10
121.7688053097345
 20
288.46700612597
 30
0.0
  0
VERTEX
  5
789
  8
NONE
 10
121.829092920354
 20
288.4737124312798
 30
0.0
  0
VERTEX
  5
78A
  8
NONE
 10
121.8904867256637
 20
288.493831347209
 30
0.0
  0
VERTEX
  5
78B
  8
NONE
 10
121.9529867256637
 20
288.5273628737577
 30
0.0
  0
VERTEX
  5
78C
  8
NONE
 10
122.016592920354
 20
288.5743070109258
 30
0.0
  0
VERTEX
  5
78D
  8
NONE
 10
122.0768805309735
 20
288.6370144224302
 30
0.0
  0
VERTEX
  5
78E
  8
NONE
 10
122.1294247787611
 20
288.7178357719877
 30
0.0
  0
VERTEX
  5
78F
  8
NONE
 10
122.1742256637168
 20
288.8167710595984
 30
0.0
  0
VERTEX
  5
790
  8
NONE
 10
122.2112831858407
 20
288.9338202852621
 30
0.0
  0
VERTEX
  5
791
  8
NONE
 10
122.2558075221239
 20
289.1435824534036
 30
0.0
  0
VERTEX
  5
792
  8
NONE
 10
122.287610619469
 20
289.3923379843771
 30
0.0
  0
VERTEX
  5
793
  8
NONE
 10
122.3066924778761
 20
289.6800868781825
 30
0.0
  0
VERTEX
  5
794
  8
NONE
 10
122.3130530973451
 20
290.0068291348196
 30
0.0
  0
VERTEX
  5
795
  8
NONE
 10
122.3064159292036
 20
290.2528191790674
 30
0.0
  0
VERTEX
  5
796
  8
NONE
 10
122.2865044247788
 20
290.4775149755276
 30
0.0
  0
VERTEX
  5
797
  8
NONE
 10
122.2533185840708
 20
290.6809165242001
 30
0.0
  0
VERTEX
  5
798
  8
NONE
 10
122.2068584070797
 20
290.8630238250851
 30
0.0
  0
VERTEX
  5
799
  8
NONE
 10
122.1641316371681
 20
290.9809718339346
 30
0.0
  0
VERTEX
  5
79A
  8
NONE
 10
122.1155973451328
 20
291.0803910817222
 30
0.0
  0
VERTEX
  5
79B
  8
NONE
 10
122.0612555309735
 20
291.1612815684479
 30
0.0
  0
VERTEX
  5
79C
  8
NONE
 10
122.0011061946903
 20
291.2236432941116
 30
0.0
  0
VERTEX
  5
79D
  8
NONE
 10
121.9534015486726
 20
291.255584665793
 30
0.0
  0
VERTEX
  5
79E
  8
NONE
 10
121.9009955752212
 20
291.2783999312798
 30
0.0
  0
VERTEX
  5
79F
  8
NONE
 10
121.8438882743363
 20
291.2920890905717
 30
0.0
  0
VERTEX
  5
7A0
  8
NONE
 10
121.7820796460177
 20
291.2966521436691
 30
0.0
  0
VERTEX
  5
7A1
  8
NONE
 10
121.7089325221239
 20
291.2882174091559
 30
0.0
  0
VERTEX
  5
7A2
  8
NONE
 10
121.6399336283186
 20
291.262913205616
 30
0.0
  0
VERTEX
  5
7A3
  8
NONE
 10
121.5750829646018
 20
291.2207395330497
 30
0.0
  0
VERTEX
  5
7A4
  8
NONE
 10
121.5143805309735
 20
291.1616963914568
 30
0.0
  0
VERTEX
  5
7A5
  8
NONE
 10
121.4410951327434
 20
291.0567461702178
 30
0.0
  0
VERTEX
  5
7A6
  8
NONE
 10
121.3805309734513
 20
290.9255238250851
 30
0.0
  0
VERTEX
  5
7A7
  8
NONE
 10
121.3326880530974
 20
290.7680293560585
 30
0.0
  0
VERTEX
  5
7A8
  8
NONE
 10
121.2975663716814
 20
290.5842627631382
 30
0.0
  0
VERTEX
  5
7A9
  8
NONE
 10
121.2544247787611
 20
290.1932229401293
 30
0.0
  0
SEQEND
  5
A39
  8
NONE
  0
POLYLINE
  5
B4
  8
NONE
 66
     1
 10
0.0
 20
0.0
 30
0.0
  0
VERTEX
  5
7AA
  8
NONE
 10
77.427
 20
289.9426698427842
 30
0.0
  0
VERTEX
  5
7AB
  8
NONE
 10
113.2533185840708
 20
289.9426698427842
 30
0.0
  0
SEQEND
  5
A3A
  8
NONE
  0
POLYLINE
  5
B5
  8
NONE
 66
     1
 10
0.0
 20
0.0
 30
0.0
  0
VERTEX
  5
7AC
  8
NONE
 10
124.7466814159292
 20
289.9426698427842
 30
0.0
  0
VERTEX
  5
7AD
  8
NONE
 10
160.573
 20
289.9426698427842
 30
0.0
  0
SEQEND
  5
A3B
  8
NONE
  0
POLYLINE
  5
B6
  8
NONE
 66
     1
 10
0.0
 20
0.0
 30
0.0
  0
VERTEX
  5
7AE
  8
NONE
 10
75.0
 20
267.3413966942143
 30
0.0
  0
VERTEX
  5
7AF
  8
NONE
 10
75.0
 20
291.4426698427842
 30
0.0
  0
SEQEND
  5
A3C
  8
NONE
  0
POLYLINE
  5
B7
  8
NONE
 66
     1
 10
0.0
 20
0.0
 30
0.0
  0
VERTEX
  5
7B0
  8
NONE
 10
163.0
 20
267.3413966942143
 30
0.0
  0
VERTEX
  5
7B1
  8
NONE
 10
163.0
 20
291.4426698427842
 30
0.0
  0
SEQEND
  5
A3D
  8
NONE
  0
POLYLINE
  5
B8
  8
NONE
 66
     1
 10
0.0
 20
0.0
 30
0.0
 70
     1
  0
VERTEX
  5
7B2
  8
NONE
 10
59.90888705878493
 20
245.3019999999994
 30
0.0
  0
VERTEX
  5
7B3
  8
NONE
 10
60.65888705878493
 20
247.7289999999994
 30
0.0
  0
VERTEX
  5
7B4
  8
NONE
 10
61.40888705878493
 20
245.3019999999994
 30
0.0
  0
SEQEND
  5
A3E
  8
NONE
  0
POLYLINE
  5
B9
  8
NONE
 66
     1
 10
0.0
 20
0.0
 30
0.0
 70
     1
  0
VERTEX
  5
7B5
  8
NONE
 10
61.40888705878493
 20
174.1559999999994
 30
0.0
  0
VERTEX
  5
7B6
  8
NONE
 10
60.65888705878493
 20
171.7289999999994
 30
0.0
  0
VERTEX
  5
7B7
  8
NONE
 10
59.90888705878493
 20
174.1559999999994
 30
0.0
  0
SEQEND
  5
A3F
  8
NONE
  0
POLYLINE
  5
BA
  8
NONE
 66
     1
 10
0.0
 20
0.0
 30
0.0
 70
     1
  0
VERTEX
  5
7B8
  8
NONE
 10
57.14671891719201
 20
211.1670530973445
 30
0.0
  0
VERTEX
  5
7B9
  8
NONE
 10
58.75512599683803
 20
211.1670530973445
 30
0.0
  0
VERTEX
  5
7BA
  8
NONE
 10
58.75512599683803
 20
211.0829823008843
 30
0.0
  0
VERTEX
  5
7BB
  8
NONE
 10
57.75512599683803
 20
208.1051061946896
 30
0.0
  0
VERTEX
  5
7BC
  8
NONE
 10
57.50733838621856
 20
208.1051061946896
 30
0.0
  0
VERTEX
  5
7BD
  8
NONE
 10
58.40335608533361
 20
210.8064336283179
 30
0.0
  0
VERTEX
  5
7BE
  8
NONE
 10
57.57813484639555
 20
210.8064336283179
 30
0.0
  0
VERTEX
  5
7BF
  8
NONE
 10
57.46212267825396
 20
210.8027002212383
 30
0.0
  0
VERTEX
  5
7C0
  8
NONE
 10
57.36408617382918
 20
210.7914999999993
 30
0.0
  0
VERTEX
  5
7C1
  8
NONE
 10
57.28402533312121
 20
210.7728329646011
 30
0.0
  0
VERTEX
  5
7C2
  8
NONE
 10
57.22194015613007
 20
210.7466991150436
 30
0.0
  0
VERTEX
  5
7C3
  8
NONE
 10
57.13358285524511
 20
210.6889004424772
 30
0.0
  0
VERTEX
  5
7C4
  8
NONE
 10
57.05435166055484
 20
210.6172743362825
 30
0.0
  0
VERTEX
  5
7C5
  8
NONE
 10
56.98424657205928
 20
210.5318207964596
 30
0.0
  0
VERTEX
  5
7C6
  8
NONE
 10
56.92326758975838
 20
210.4325398230082
 30
0.0
  0
VERTEX
  5
7C7
  8
NONE
 10
56.85910829772298
 20
210.456876106194
 30
0.0
  0
SEQEND
  5
A40
  8
NONE
  0
POLYLINE
  5
BB
  8
NONE
 66
     1
 10
0.0
 20
0.0
 30
0.0
 70
     1
  0
VERTEX
  5
7C8
  8
NONE
 10
60.98742688179378
 20
211.2289999999994
 30
0.0
  0
VERTEX
  5
7C9
  8
NONE
 10
60.98742688179378
 20
211.1471415929197
 30
0.0
  0
VERTEX
  5
7CA
  8
NONE
 10
60.84811548798847
 20
211.1290967920348
 30
0.0
  0
VERTEX
  5
7CB
  8
NONE
 10
60.72221670480263
 20
211.1037234513268
 30
0.0
  0
VERTEX
  5
7CC
  8
NONE
 10
60.60973053223626
 20
211.0710215707958
 30
0.0
  0
VERTEX
  5
7CD
  8
NONE
 10
60.51065697028935
 20
211.0309911504418
 30
0.0
  0
VERTEX
  5
7CE
  8
NONE
 10
60.41856626232475
 20
210.9815580752206
 30
0.0
  0
VERTEX
  5
7CF
  8
NONE
 10
60.32702865170528
 20
210.9206482300878
 30
0.0
  0
VERTEX
  5
7D0
  8
NONE
 10
60.23604413843094
 20
210.8482616150436
 30
0.0
  0
VERTEX
  5
7D1
  8
NONE
 10
60.14561272250174
 20
210.7643982300878
 30
0.0
  0
VERTEX
  5
7D2
  8
NONE
 10
60.05932953666102
 20
210.6722383849551
 30
0.0
  0
VERTEX
  5
7D3
  8
NONE
 10
59.98078971365219
 20
210.5749623893799
 30
0.0
  0
VERTEX
  5
7D4
  8
NONE
 10
59.90999325347519
 20
210.4725702433622
 30
0.0
  0
VERTEX
  5
7D5
  8
NONE
 10
59.84694015613006
 20
210.365061946902
 30
0.0
  0
VERTEX
  5
7D6
  8
NONE
 10
59.79017854108581
 20
210.24981028761
 30
0.0
  0
VERTEX
  5
7D7
  8
NONE
 10
59.73825652781147
 20
210.1241880530967
 30
0.0
  0
VERTEX
  5
7D8
  8
NONE
 10
59.69117411630705
 20
209.9881952433622
 30
0.0
  0
VERTEX
  5
7D9
  8
NONE
 10
59.64893130657254
 20
209.8418318584064
 30
0.0
  0
VERTEX
  5
7DA
  8
NONE
 10
59.80836161630705
 20
209.9376559734507
 30
0.0
  0
VERTEX
  5
7DB
  8
NONE
 10
59.96806847471413
 20
210.0061017699109
 30
0.0
  0
VERTEX
  5
7DC
  8
NONE
 10
60.12805188179377
 20
210.0471692477869
 30
0.0
  0
VERTEX
  5
7DD
  8
NONE
 10
60.28831183754599
 20
210.060858407079
 30
0.0
  0
VERTEX
  5
7DE
  8
NONE
 10
60.36391333090882
 20
210.0569867256631
 30
0.0
  0
VERTEX
  5
7DF
  8
NONE
 10
60.43695674905042
 20
210.0453716814153
 30
0.0
  0
VERTEX
  5
7E0
  8
NONE
 10
60.50744209197077
 20
210.0260132743356
 30
0.0
  0
VERTEX
  5
7E1
  8
NONE
 10
60.57536935966989
 20
209.9989115044241
 30
0.0
  0
VERTEX
  5
7E2
  8
NONE
 10
60.64073855214777
 20
209.9640663716808
 30
0.0
  0
VERTEX
  5
7E3
  8
NONE
 10
60.7035496694044
 20
209.9214778761055
 30
0.0
  0
VERTEX
  5
7E4
  8
NONE
 10
60.82149767825396
 20
209.8130707964595
 30
0.0
  0
VERTEX
  5
7E5
  8
NONE
 10
60.87438761188228
 20
209.7489115044241
 30
0.0
  0
VERTEX
  5
7E6
  8
NONE
 10
60.92022555436015
 20
209.6803274336277
 30
0.0
  0
VERTEX
  5
7E7
  8
NONE
 10
60.95901150568758
 20
209.6073185840701
 30
0.0
  0
VERTEX
  5
7E8
  8
NONE
 10
60.99074546586457
 20
209.5298849557516
 30
0.0
  0
VERTEX
  5
7E9
  8
NONE
 10
61.01542743489112
 20
209.4480265486719
 30
0.0
  0
VERTEX
  5
7EA
  8
NONE
 10
61.03305741276723
 20
209.3617433628312
 30
0.0
  0
VERTEX
  5
7EB
  8
NONE
 10
61.04716139506812
 20
209.1759026548666
 30
0.0
  0
VERTEX
  5
7EC
  8
NONE
 10
61.03291913843095
 20
208.99199778761
 30
0.0
  0
VERTEX
  5
7ED
  8
NONE
 10
60.99019236851944
 20
208.8163893805303
 30
0.0
  0
VERTEX
  5
7EE
  8
NONE
 10
60.9189810853336
 20
208.6490774336277
 30
0.0
  0
VERTEX
  5
7EF
  8
NONE
 10
60.81928528887342
 20
208.490061946902
 30
0.0
  0
VERTEX
  5
7F0
  8
NONE
 10
60.7479357313513
 20
208.4019120575215
 30
0.0
  0
VERTEX
  5
7F1
  8
NONE
 10
60.67105520037785
 20
208.325515486725
 30
0.0
  0
VERTEX
  5
7F2
  8
NONE
 10
60.58864369595307
 20
208.2608722345126
 30
0.0
  0
VERTEX
  5
7F3
  8
NONE
 10
60.50070121807696
 20
208.2079823008843
 30
0.0
  0
VERTEX
  5
7F4
  8
NONE
 10
60.40722776674952
 20
208.16684568584
 30
0.0
  0
VERTEX
  5
7F5
  8
NONE
 10
60.30822334197077
 20
208.1374623893799
 30
0.0
  0
VERTEX
  5
7F6
  8
NONE
 10
60.20368794374068
 20
208.1198324115038
 30
0.0
  0
VERTEX
  5
7F7
  8
NONE
 10
60.09362157205926
 20
208.1139557522117
 30
0.0
  0
VERTEX
  5
7F8
  8
NONE
 10
59.94566803223626
 20
208.1266769911498
 30
0.0
  0
VERTEX
  5
7F9
  8
NONE
 10
59.80932953666104
 20
208.1648407079639
 30
0.0
  0
VERTEX
  5
7FA
  8
NONE
 10
59.68460608533361
 20
208.2284469026542
 30
0.0
  0
VERTEX
  5
7FB
  8
NONE
 10
59.57149767825396
 20
208.3174955752206
 30
0.0
  0
VERTEX
  5
7FC
  8
NONE
 10
59.47297721365219
 20
208.4201642699109
 30
0.0
  0
VERTEX
  5
7FD
  8
NONE
 10
59.38759281099732
 20
208.5301615044241
 30
0.0
  0
VERTEX
  5
7FE
  8
NONE
 10
59.31534447028935
 20
208.6474872787604
 30
0.0
  0
VERTEX
  5
7FF
  8
NONE
 10
59.25623219152829
 20
208.7721415929197
 30
0.0
  0
VERTEX
  5
800
  8
NONE
 10
59.21025597471414
 20
208.904124446902
 30
0.0
  0
VERTEX
  5
801
  8
NONE
 10
59.17741581984688
 20
209.0434358407073
 30
0.0
  0
VERTEX
  5
802
  8
NONE
 10
59.15771172692652
 20
209.1900757743356
 30
0.0
  0
VERTEX
  5
803
  8
NONE
 10
59.15114369595307
 20
209.344044247787
 30
0.0
  0
VERTEX
  5
804
  8
NONE
 10
59.16123772250174
 20
209.5428827433622
 30
0.0
  0
VERTEX
  5
805
  8
NONE
 10
59.19151980214775
 20
209.7367433628312
 30
0.0
  0
VERTEX
  5
806
  8
NONE
 10
59.24198993489112
 20
209.925626106194
 30
0.0
  0
VERTEX
  5
807
  8
NONE
 10
59.31264812073183
 20
210.1095309734507
 30
0.0
  0
VERTEX
  5
808
  8
NONE
 10
59.40204247913891
 20
210.2858307522117
 30
0.0
  0
VERTEX
  5
809
  8
NONE
 10
59.50872112958139
 20
210.4518982300878
 30
0.0
  0
VERTEX
  5
80A
  8
NONE
 10
59.63268407205926
 20
210.607733407079
 30
0.0
  0
VERTEX
  5
80B
  8
NONE
 10
59.77393130657254
 20
210.7533362831852
 30
0.0
  0
VERTEX
  5
80C
  8
NONE
 10
59.92223053223626
 20
210.8823462389374
 30
0.0
  0
VERTEX
  5
80D
  8
NONE
 10
60.06734944816546
 20
210.9884026548666
 30
0.0
  0
VERTEX
  5
80E
  8
NONE
 10
60.20928805436014
 20
211.0715055309728
 30
0.0
  0
VERTEX
  5
80F
  8
NONE
 10
60.34804635082033
 20
211.131654867256
 30
0.0
  0
VERTEX
  5
810
  8
NONE
 10
60.48286382869643
 20
211.1742433628312
 30
0.0
  0
VERTEX
  5
811
  8
NONE
 10
60.61297997913891
 20
211.2046637168135
 30
0.0
  0
VERTEX
  5
812
  8
NONE
 10
60.73839480214776
 20
211.2229159292029
 30
0.0
  0
VERTEX
  5
813
  8
NONE
 10
60.85910829772298
 20
211.2289999999994
 30
0.0
  0
SEQEND
  5
A41
  8
NONE
  0
POLYLINE
  5
BC
  8
NONE
 66
     1
 10
0.0
 20
0.0
 30
0.0
 70
     1
  0
VERTEX
  5
814
  8
NONE
 10
59.61132068710351
 20
209.6803274336277
 30
0.0
  0
VERTEX
  5
815
  8
NONE
 10
59.58145343046634
 20
209.4104159292029
 30
0.0
  0
VERTEX
  5
816
  8
NONE
 10
59.57149767825396
 20
209.1980265486719
 30
0.0
  0
VERTEX
  5
817
  8
NONE
 10
59.576406417192
 20
209.0895503318577
 30
0.0
  0
VERTEX
  5
818
  8
NONE
 10
59.59113263400616
 20
208.9765110619462
 30
0.0
  0
VERTEX
  5
819
  8
NONE
 10
59.61567632869643
 20
208.8589087389374
 30
0.0
  0
VERTEX
  5
81A
  8
NONE
 10
59.6500375012628
 20
208.7367433628312
 30
0.0
  0
VERTEX
  5
81B
  8
NONE
 10
59.694077877369
 20
208.6187262168135
 30
0.0
  0
VERTEX
  5
81C
  8
NONE
 10
59.74765918267873
 20
208.5135685840702
 30
0.0
  0
VERTEX
  5
81D
  8
NONE
 10
59.81078141719201
 20
208.4212704646011
 30
0.0
  0
VERTEX
  5
81E
  8
NONE
 10
59.88344458090882
 20
208.3418318584064
 30
0.0
  0
VERTEX
  5
81F
  8
NONE
 10
59.94290254551059
 20
208.2963396017693
 30
0.0
  0
VERTEX
  5
820
  8
NONE
 10
60.00844458090882
 20
208.2638451327427
 30
0.0
  0
VERTEX
  5
821
  8
NONE
 10
60.08007068710351
 20
208.2443484513267
 30
0.0
  0
VERTEX
  5
822
  8
NONE
 10
60.15778086409466
 20
208.2378495575215
 30
0.0
  0
VERTEX
  5
823
  8
NONE
 10
60.25146172692652
 20
208.2491880530967
 30
0.0
  0
VERTEX
  5
824
  8
NONE
 10
60.34002643931591
 20
208.2832035398224
 30
0.0
  0
VERTEX
  5
825
  8
NONE
 10
60.4234750012628
 20
208.3398960176985
 30
0.0
  0
VERTEX
  5
826
  8
NONE
 10
60.50180741276723
 20
208.419265486725
 30
0.0
  0
VERTEX
  5
827
  8
NONE
 10
60.56810995701501
 20
208.5196526548666
 30
0.0
  0
VERTEX
  5
828
  8
NONE
 10
60.615468917192
 20
208.6393982300879
 30
0.0
  0
VERTEX
  5
829
  8
NONE
 10
60.6438842932982
 20
208.7785022123887
 30
0.0
  0
VERTEX
  5
82A
  8
NONE
 10
60.6533560853336
 20
208.9369646017693
 30
0.0
  0
VERTEX
  5
82B
  8
NONE
 10
60.64395343046634
 20
209.1197632743356
 30
0.0
  0
VERTEX
  5
82C
  8
NONE
 10
60.61574546586458
 20
209.2898407079639
 30
0.0
  0
VERTEX
  5
82D
  8
NONE
 10
60.56873219152829
 20
209.4471969026542
 30
0.0
  0
VERTEX
  5
82E
  8
NONE
 10
60.50291360745749
 20
209.5918318584064
 30
0.0
  0
VERTEX
  5
82F
  8
NONE
 10
60.46333257869644
 20
209.6566479535392
 30
0.0
  0
VERTEX
  5
830
  8
NONE
 10
60.4198107313513
 20
209.7128219026542
 30
0.0
  0
VERTEX
  5
831
  8
NONE
 10
60.37234806542209
 20
209.7603537057516
 30
0.0
  0
VERTEX
  5
832
  8
NONE
 10
60.32094458090882
 20
209.7992433628312
 30
0.0
  0
VERTEX
  5
833
  8
NONE
 10
60.26560027781149
 20
209.8294908738932
 30
0.0
  0
VERTEX
  5
834
  8
NONE
 10
60.20631515613006
 20
209.8510962389374
 30
0.0
  0
VERTEX
  5
835
  8
NONE
 10
60.14308921586458
 20
209.8640594579639
 30
0.0
  0
VERTEX
  5
836
  8
NONE
 10
60.07592245701502
 20
209.8683805309728
 30
0.0
  0
VERTEX
  5
837
  8
NONE
 10
59.98880962515661
 20
209.8595309734507
 30
0.0
  0
VERTEX
  5
838
  8
NONE
 10
59.89561272250175
 20
209.8329823008843
 30
0.0
  0
VERTEX
  5
839
  8
NONE
 10
59.77642024462564
 20
209.7771194690259
 30
0.0
  0
SEQEND
  5
A42
  8
NONE
  0
POLYLINE
  5
BD
  8
NONE
 66
     1
 10
0.0
 20
0.0
 30
0.0
 70
     1
  0
VERTEX
  5
83A
  8
NONE
 10
61.78831183754599
 20
208.5962566371675
 30
0.0
  0
VERTEX
  5
83B
  8
NONE
 10
61.83822887294422
 20
208.5917627212383
 30
0.0
  0
VERTEX
  5
83C
  8
NONE
 10
61.88399767825395
 20
208.5782809734507
 30
0.0
  0
VERTEX
  5
83D
  8
NONE
 10
61.92561825347519
 20
208.5558113938047
 30
0.0
  0
VERTEX
  5
83E
  8
NONE
 10
61.96309059860793
 20
208.5243539823002
 30
0.0
  0
VERTEX
  5
83F
  8
NONE
 10
61.99406404993536
 20
208.4865359513267
 30
0.0
  0
VERTEX
  5
840
  8
NONE
 10
62.01618794374068
 20
208.4449845132737
 30
0.0
  0
VERTEX
  5
841
  8
NONE
 10
62.02946228002386
 20
208.399699668141
 30
0.0
  0
VERTEX
  5
842
  8
NONE
 10
62.03388705878493
 20
208.3506814159286
 30
0.0
  0
VERTEX
  5
843
  8
NONE
 10
62.02939314285572
 20
208.3016631637162
 30
0.0
  0
VERTEX
  5
844
  8
NONE
 10
62.01591139506811
 20
208.2563783185834
 30
0.0
  0
VERTEX
  5
845
  8
NONE
 10
61.99344181542209
 20
208.2148268805303
 30
0.0
  0
VERTEX
  5
846
  8
NONE
 10
61.96198440391767
 20
208.1770088495569
 30
0.0
  0
VERTEX
  5
847
  8
NONE
 10
61.92416637294422
 20
208.1455514380525
 30
0.0
  0
VERTEX
  5
848
  8
NONE
 10
61.88261493489112
 20
208.1230818584064
 30
0.0
  0
VERTEX
  5
849
  8
NONE
 10
61.83733008975838
 20
208.1096001106188
 30
0.0
  0
VERTEX
  5
84A
  8
NONE
 10
61.78831183754599
 20
208.1051061946896
 30
0.0
  0
VERTEX
  5
84B
  8
NONE
 10
61.7392935853336
 20
208.1096001106188
 30
0.0
  0
VERTEX
  5
84C
  8
NONE
 10
61.69400874020086
 20
208.1230818584064
 30
0.0
  0
VERTEX
  5
84D
  8
NONE
 10
61.65245730214776
 20
208.1455514380525
 30
0.0
  0
VERTEX
  5
84E
  8
NONE
 10
61.61463927117431
 20
208.1770088495569
 30
0.0
  0
VERTEX
  5
84F
  8
NONE
 10
61.58318185966989
 20
208.2148268805303
 30
0.0
  0
VERTEX
  5
850
  8
NONE
 10
61.56071228002387
 20
208.2563783185834
 30
0.0
  0
VERTEX
  5
851
  8
NONE
 10
61.54723053223626
 20
208.3016631637162
 30
0.0
  0
VERTEX
  5
852
  8
NONE
 10
61.54273661630705
 20
208.3506814159286
 30
0.0
  0
VERTEX
  5
853
  8
NONE
 10
61.54723053223626
 20
208.4005984513268
 30
0.0
  0
VERTEX
  5
854
  8
NONE
 10
61.56071228002387
 20
208.4463672566365
 30
0.0
  0
VERTEX
  5
855
  8
NONE
 10
61.58318185966989
 20
208.4879878318578
 30
0.0
  0
VERTEX
  5
856
  8
NONE
 10
61.61463927117431
 20
208.5254601769905
 30
0.0
  0
VERTEX
  5
857
  8
NONE
 10
61.65245730214776
 20
208.5564336283179
 30
0.0
  0
VERTEX
  5
858
  8
NONE
 10
61.69400874020086
 20
208.5785575221232
 30
0.0
  0
VERTEX
  5
859
  8
NONE
 10
61.7392935853336
 20
208.5918318584064
 30
0.0
  0
SEQEND
  5
A43
  8
NONE
  0
POLYLINE
  5
BE
  8
NONE
 66
     1
 10
0.0
 20
0.0
 30
0.0
 70
     1
  0
VERTEX
  5
85A
  8
NONE
 10
62.51840033312121
 20
209.6493539823002
 30
0.0
  0
VERTEX
  5
85B
  8
NONE
 10
62.52807953666104
 20
209.8970724557516
 30
0.0
  0
VERTEX
  5
85C
  8
NONE
 10
62.55711714728051
 20
210.1269535398224
 30
0.0
  0
VERTEX
  5
85D
  8
NONE
 10
62.60551316497963
 20
210.3389972345126
 30
0.0
  0
VERTEX
  5
85E
  8
NONE
 10
62.67326758975838
 20
210.5332035398224
 30
0.0
  0
VERTEX
  5
85F
  8
NONE
 10
62.75706183754599
 20
210.7066686946896
 30
0.0
  0
VERTEX
  5
860
  8
NONE
 10
62.85357732427165
 20
210.8564889380525
 30
0.0
  0
VERTEX
  5
861
  8
NONE
 10
62.96281404993537
 20
210.9826642699109
 30
0.0
  0
VERTEX
  5
862
  8
NONE
 10
63.08477201453714
 20
211.0851946902648
 30
0.0
  0
VERTEX
  5
863
  8
NONE
 10
63.18515918267874
 20
211.1481095132737
 30
0.0
  0
VERTEX
  5
864
  8
NONE
 10
63.28720564285572
 20
211.1930486725657
 30
0.0
  0
VERTEX
  5
865
  8
NONE
 10
63.39091139506812
 20
211.220012168141
 30
0.0
  0
VERTEX
  5
866
  8
NONE
 10
63.49627643931591
 20
211.2289999999994
 30
0.0
  0
VERTEX
  5
867
  8
NONE
 10
63.58145343046634
 20
211.2235035951321
 30
0.0
  0
VERTEX
  5
868
  8
NONE
 10
63.66441803223626
 20
211.2070143805304
 30
0.0
  0
VERTEX
  5
869
  8
NONE
 10
63.74517024462563
 20
211.1795323561941
 30
0.0
  0
VERTEX
  5
86A
  8
NONE
 10
63.82371006763449
 20
211.1410575221232
 30
0.0
  0
VERTEX
  5
86B
  8
NONE
 10
63.9000375012628
 20
211.0915898783179
 30
0.0
  0
VERTEX
  5
86C
  8
NONE
 10
63.97415254551059
 20
211.0311294247781
 30
0.0
  0
VERTEX
  5
86D
  8
NONE
 10
64.04605520037785
 20
210.9596761615038
 30
0.0
  0
VERTEX
  5
86E
  8
NONE
 10
64.11574546586458
 20
210.8772300884949
 30
0.0
  0
VERTEX
  5
86F
  8
NONE
 10
64.1961174238292
 20
210.7634303097338
 30
0.0
  0
VERTEX
  5
870
  8
NONE
 10
64.26577312073184
 20
210.639951327433
 30
0.0
  0
VERTEX
  5
871
  8
NONE
 10
64.32471255657254
 20
210.5067931415923
 30
0.0
  0
VERTEX
  5
872
  8
NONE
 10
64.3729357313513
 20
210.3639557522117
 30
0.0
  0
VERTEX
  5
873
  8
NONE
 10
64.41044264506812
 20
210.2114391592914
 30
0.0
  0
VERTEX
  5
874
  8
NONE
 10
64.43723329772298
 20
210.0492433628312
 30
0.0
  0
VERTEX
  5
875
  8
NONE
 10
64.45330768931589
 20
209.8773683628312
 30
0.0
  0
VERTEX
  5
876
  8
NONE
 10
64.45866581984687
 20
209.6958141592914
 30
0.0
  0
VERTEX
  5
877
  8
NONE
 10
64.44926316497961
 20
209.4445696902648
 30
0.0
  0
VERTEX
  5
878
  8
NONE
 10
64.42105520037785
 20
209.2129601769905
 30
0.0
  0
VERTEX
  5
879
  8
NONE
 10
64.37404192604157
 20
209.0009856194684
 30
0.0
  0
VERTEX
  5
87A
  8
NONE
 10
64.30822334197077
 20
208.8086460176985
 30
0.0
  0
VERTEX
  5
87B
  8
NONE
 10
64.2278168154221
 20
208.6386377212383
 30
0.0
  0
VERTEX
  5
87C
  8
NONE
 10
64.1370397136522
 20
208.4936570796454
 30
0.0
  0
VERTEX
  5
87D
  8
NONE
 10
64.03589203666104
 20
208.3737040929197
 30
0.0
  0
VERTEX
  5
87E
  8
NONE
 10
63.92437378444865
 20
208.2787787610613
 30
0.0
  0
VERTEX
  5
87F
  8
NONE
 10
63.80870730214776
 20
208.2066686946896
 30
0.0
  0
VERTEX
  5
880
  8
NONE
 10
63.69511493489112
 20
208.1551615044241
 30
0.0
  0
VERTEX
  5
881
  8
NONE
 10
63.58359668267873
 20
208.1242571902648
 30
0.0
  0
VERTEX
  5
882
  8
NONE
 10
63.47415254551059
 20
208.1139557522117
 30
0.0
  0
VERTEX
  5
883
  8
NONE
 10
63.36909861851944
 20
208.1218719579639
 30
0.0
  0
VERTEX
  5
884
  8
NONE
 10
63.26853860745749
 20
208.1456205752206
 30
0.0
  0
VERTEX
  5
885
  8
NONE
 10
63.17247251232475
 20
208.1852016039817
 30
0.0
  0
VERTEX
  5
886
  8
NONE
 10
63.08090033312121
 20
208.2406150442471
 30
0.0
  0
VERTEX
  5
887
  8
NONE
 10
62.99382206984688
 20
208.311860896017
 30
0.0
  0
VERTEX
  5
888
  8
NONE
 10
62.91123772250175
 20
208.3989391592914
 30
0.0
  0
VERTEX
  5
889
  8
NONE
 10
62.83314729108582
 20
208.5018498340701
 30
0.0
  0
VERTEX
  5
88A
  8
NONE
 10
62.75955077559909
 20
208.6205929203533
 30
0.0
  0
VERTEX
  5
88B
  8
NONE
 10
62.70303114064334
 20
208.7300716261055
 30
0.0
  0
VERTEX
  5
88C
  8
NONE
 10
62.65404745701502
 20
208.845012168141
 30
0.0
  0
VERTEX
  5
88D
  8
NONE
 10
62.61259972471414
 20
208.9654145464596
 30
0.0
  0
VERTEX
  5
88E
  8
NONE
 10
62.57868794374068
 20
209.0912787610613
 30
0.0
  0
VERTEX
  5
88F
  8
NONE
 10
62.55231211409467
 20
209.2226048119462
 30
0.0
  0
VERTEX
  5
890
  8
NONE
 10
62.53347223577608
 20
209.3593926991144
 30
0.0
  0
VERTEX
  5
891
  8
NONE
 10
62.52216830878493
 20
209.5016424225657
 30
0.0
  0
SEQEND
  5
A44
  8
NONE
  0
POLYLINE
  5
BF
  8
NONE
 66
     1
 10
0.0
 20
0.0
 30
0.0
 70
     1
  0
VERTEX
  5
892
  8
NONE
 10
62.95202865170528
 20
209.594044247787
 30
0.0
  0
VERTEX
  5
893
  8
NONE
 10
62.96156958090882
 20
209.2985519911498
 30
0.0
  0
VERTEX
  5
894
  8
NONE
 10
62.99019236851944
 20
209.031544247787
 30
0.0
  0
VERTEX
  5
895
  8
NONE
 10
63.03789701453715
 20
208.7930210176985
 30
0.0
  0
VERTEX
  5
896
  8
NONE
 10
63.10468351896192
 20
208.5829823008843
 30
0.0
  0
VERTEX
  5
897
  8
NONE
 10
63.13814590834245
 20
208.5057215154861
 30
0.0
  0
VERTEX
  5
898
  8
NONE
 10
63.17547997913891
 20
208.4387621681409
 30
0.0
  0
VERTEX
  5
899
  8
NONE
 10
63.21668573135129
 20
208.3821042588489
 30
0.0
  0
VERTEX
  5
89A
  8
NONE
 10
63.26176316497962
 20
208.33574778761
 30
0.0
  0
VERTEX
  5
89B
  8
NONE
 10
63.31071228002387
 20
208.2996927544241
 30
0.0
  0
VERTEX
  5
89C
  8
NONE
 10
63.36353307648405
 20
208.2739391592914
 30
0.0
  0
VERTEX
  5
89D
  8
NONE
 10
63.42022555436016
 20
208.2584870022117
 30
0.0
  0
VERTEX
  5
89E
  8
NONE
 10
63.48078971365219
 20
208.2533362831852
 30
0.0
  0
VERTEX
  5
89F
  8
NONE
 10
63.54107732427165
 20
208.2600425884949
 30
0.0
  0
VERTEX
  5
8A0
  8
NONE
 10
63.60247112958139
 20
208.2801615044241
 30
0.0
  0
VERTEX
  5
8A1
  8
NONE
 10
63.66497112958139
 20
208.3136930309728
 30
0.0
  0
VERTEX
  5
8A2
  8
NONE
 10
63.72857732427165
 20
208.3606371681409
 30
0.0
  0
VERTEX
  5
8A3
  8
NONE
 10
63.78886493489114
 20
208.4233445796454
 30
0.0
  0
VERTEX
  5
8A4
  8
NONE
 10
63.84140918267875
 20
208.5041659292029
 30
0.0
  0
VERTEX
  5
8A5
  8
NONE
 10
63.88621006763449
 20
208.6031012168135
 30
0.0
  0
VERTEX
  5
8A6
  8
NONE
 10
63.92326758975838
 20
208.7201504424772
 30
0.0
  0
VERTEX
  5
8A7
  8
NONE
 10
63.96779192604157
 20
208.9299126106188
 30
0.0
  0
VERTEX
  5
8A8
  8
NONE
 10
63.9995950233867
 20
209.1786681415923
 30
0.0
  0
VERTEX
  5
8A9
  8
NONE
 10
64.01867688179377
 20
209.4664170353976
 30
0.0
  0
VERTEX
  5
8AA
  8
NONE
 10
64.0250375012628
 20
209.7931592920347
 30
0.0
  0
VERTEX
  5
8AB
  8
NONE
 10
64.0184003331212
 20
210.0391493362825
 30
0.0
  0
VERTEX
  5
8AC
  8
NONE
 10
63.99848882869643
 20
210.2638451327427
 30
0.0
  0
VERTEX
  5
8AD
  8
NONE
 10
63.96530298798847
 20
210.4672466814153
 30
0.0
  0
VERTEX
  5
8AE
  8
NONE
 10
63.91884281099732
 20
210.6493539823002
 30
0.0
  0
VERTEX
  5
8AF
  8
NONE
 10
63.87611604108581
 20
210.7673019911498
 30
0.0
  0
VERTEX
  5
8B0
  8
NONE
 10
63.82758174905042
 20
210.8667212389374
 30
0.0
  0
VERTEX
  5
8B1
  8
NONE
 10
63.77323993489112
 20
210.9476117256631
 30
0.0
  0
VERTEX
  5
8B2
  8
NONE
 10
63.71309059860794
 20
211.0099734513268
 30
0.0
  0
VERTEX
  5
8B3
  8
NONE
 10
63.66538595259024
 20
211.0419148230082
 30
0.0
  0
VERTEX
  5
8B4
  8
NONE
 10
63.61297997913891
 20
211.0647300884949
 30
0.0
  0
VERTEX
  5
8B5
  8
NONE
 10
63.55587267825396
 20
211.078419247787
 30
0.0
  0
VERTEX
  5
8B6
  8
NONE
 10
63.49406404993537
 20
211.0829823008843
 30
0.0
  0
VERTEX
  5
8B7
  8
NONE
 10
63.42091692604156
 20
211.074547566371
 30
0.0
  0
VERTEX
  5
8B8
  8
NONE
 10
63.35191803223626
 20
211.0492433628312
 30
0.0
  0
VERTEX
  5
8B9
  8
NONE
 10
63.28706736851944
 20
211.0070696902648
 30
0.0
  0
VERTEX
  5
8BA
  8
NONE
 10
63.22636493489112
 20
210.9480265486719
 30
0.0
  0
VERTEX
  5
8BB
  8
NONE
 10
63.15307953666104
 20
210.843076327433
 30
0.0
  0
VERTEX
  5
8BC
  8
NONE
 10
63.092515377369
 20
210.7118539823002
 30
0.0
  0
VERTEX
  5
8BD
  8
NONE
 10
63.04467245701503
 20
210.5543595132737
 30
0.0
  0
VERTEX
  5
8BE
  8
NONE
 10
63.00955077559909
 20
210.3705929203533
 30
0.0
  0
VERTEX
  5
8BF
  8
NONE
 10
62.96640918267873
 20
209.9795530973445
 30
0.0
  0
SEQEND
  5
A45
  8
NONE
  0
POLYLINE
  5
C0
  8
NONE
 66
     1
 10
0.0
 20
0.0
 30
0.0
  0
VERTEX
  5
8C0
  8
NONE
 10
60.65888705878493
 20
245.3019999999994
 30
0.0
  0
VERTEX
  5
8C1
  8
NONE
 10
60.65888705878493
 20
213.2289999999994
 30
0.0
  0
SEQEND
  5
A46
  8
NONE
  0
POLYLINE
  5
C1
  8
NONE
 66
     1
 10
0.0
 20
0.0
 30
0.0
  0
VERTEX
  5
8C2
  8
NONE
 10
60.65888705878493
 20
206.1051061946896
 30
0.0
  0
VERTEX
  5
8C3
  8
NONE
 10
60.65888705878493
 20
174.1559999999994
 30
0.0
  0
SEQEND
  5
A47
  8
NONE
  0
POLYLINE
  5
C2
  8
NONE
 66
     1
 10
0.0
 20
0.0
 30
0.0
  0
VERTEX
  5
8C4
  8
NONE
 10
118.9
 20
247.7289999999994
 30
0.0
  0
VERTEX
  5
8C5
  8
NONE
 10
59.15888705878493
 20
247.7289999999994
 30
0.0
  0
SEQEND
  5
A48
  8
NONE
  0
POLYLINE
  5
C3
  8
NONE
 66
     1
 10
0.0
 20
0.0
 30
0.0
  0
VERTEX
  5
8C6
  8
NONE
 10
118.9
 20
171.7289999999994
 30
0.0
  0
VERTEX
  5
8C7
  8
NONE
 10
59.15888705878493
 20
171.7289999999994
 30
0.0
  0
SEQEND
  5
A49
  8
NONE
  0
POLYLINE
  5
C4
  8
NONE
 66
     1
 10
0.0
 20
0.0
 30
0.0
 70
     1
  0
VERTEX
  5
8C8
  8
NONE
 10
103.8247030917389
 20
273.801148816163
 30
0.0
  0
VERTEX
  5
8C9
  8
NONE
 10
101.3977030917389
 20
274.551148816163
 30
0.0
  0
VERTEX
  5
8CA
  8
NONE
 10
103.8247030917389
 20
275.301148816163
 30
0.0
  0
SEQEND
  5
A4A
  8
NONE
  0
POLYLINE
  5
C5
  8
NONE
 66
     1
 10
0.0
 20
0.0
 30
0.0
 70
     1
  0
VERTEX
  5
8CB
  8
NONE
 10
133.9068654396723
 20
275.301148816163
 30
0.0
  0
VERTEX
  5
8CC
  8
NONE
 10
136.3338654396723
 20
274.551148816163
 30
0.0
  0
VERTEX
  5
8CD
  8
NONE
 10
133.9068654396723
 20
273.801148816163
 30
0.0
  0
SEQEND
  5
A4B
  8
NONE
  0
POLYLINE
  5
C6
  8
NONE
 66
     1
 10
0.0
 20
0.0
 30
0.0
 70
     1
  0
VERTEX
  5
8CE
  8
NONE
 10
115.1368019648206
 20
275.4184054533312
 30
0.0
  0
VERTEX
  5
8CF
  8
NONE
 10
115.2051786241126
 20
275.5613119798799
 30
0.0
  0
VERTEX
  5
8D0
  8
NONE
 10
115.2819900179179
 20
275.6869342143931
 30
0.0
  0
VERTEX
  5
8D1
  8
NONE
 10
115.3672361462365
 20
275.795272156871
 30
0.0
  0
VERTEX
  5
8D2
  8
NONE
 10
115.4609170090684
 20
275.8863258073135
 30
0.0
  0
VERTEX
  5
8D3
  8
NONE
 10
115.5648301727852
 20
275.9584358736852
 30
0.0
  0
VERTEX
  5
8D4
  8
NONE
 10
115.6807732037587
 20
276.0099430639507
 30
0.0
  0
VERTEX
  5
8D5
  8
NONE
 10
115.8087461019888
 20
276.04084737811
 30
0.0
  0
VERTEX
  5
8D6
  8
NONE
 10
115.9487488674755
 20
276.051148816163
 30
0.0
  0
VERTEX
  5
8D7
  8
NONE
 10
116.0362765223427
 20
276.0474845462516
 30
0.0
  0
VERTEX
  5
8D8
  8
NONE
 10
116.1185497524312
 20
276.0364917365171
 30
0.0
  0
VERTEX
  5
8D9
  8
NONE
 10
116.195568557741
 20
276.0181703869595
 30
0.0
  0
VERTEX
  5
8DA
  8
NONE
 10
116.2673329382719
 20
275.992520497579
 30
0.0
  0
VERTEX
  5
8DB
  8
NONE
 10
116.3338428940241
 20
275.9595420683754
 30
0.0
  0
VERTEX
  5
8DC
  8
NONE
 10
116.3950984249976
 20
275.9192350993489
 30
0.0
  0
VERTEX
  5
8DD
  8
NONE
 10
116.4510995311923
 20
275.8715995904993
 30
0.0
  0
VERTEX
  5
8DE
  8
NONE
 10
116.5018462126082
 20
275.8166355418268
 30
0.0
  0
VERTEX
  5
8DF
  8
NONE
 10
116.565728955971
 20
275.7277251435967
 30
0.0
  0
VERTEX
  5
8E0
  8
NONE
 10
116.6113594869445
 20
275.6357727099684
 30
0.0
  0
VERTEX
  5
8E1
  8
NONE
 10
116.6387378055286
 20
275.5407782409418
 30
0.0
  0
VERTEX
  5
8E2
  8
NONE
 10
116.6478639117233
 20
275.442741736517
 30
0.0
  0
VERTEX
  5
8E3
  8
NONE
 10
116.6414341550861
 20
275.3605376435966
 30
0.0
  0
VERTEX
  5
8E4
  8
NONE
 10
116.6221448851746
 20
275.2776421789949
 30
0.0
  0
VERTEX
  5
8E5
  8
NONE
 10
116.5899961019887
 20
275.1940553427116
 30
0.0
  0
VERTEX
  5
8E6
  8
NONE
 10
116.5449878055286
 20
275.1097771347471
 30
0.0
  0
VERTEX
  5
8E7
  8
NONE
 10
116.4871199957941
 20
275.024807555101
 30
0.0
  0
VERTEX
  5
8E8
  8
NONE
 10
116.4163926727852
 20
274.9391466037737
 30
0.0
  0
VERTEX
  5
8E9
  8
NONE
 10
116.332805836502
 20
274.8527942807648
 30
0.0
  0
VERTEX
  5
8EA
  8
NONE
 10
116.2363594869445
 20
274.7657505860745
 30
0.0
  0
VERTEX
  5
8EB
  8
NONE
 10
116.3661990887144
 20
274.7057395241276
 30
0.0
  0
VERTEX
  5
8EC
  8
NONE
 10
116.4791692214578
 20
274.634113417933
 30
0.0
  0
VERTEX
  5
8ED
  8
NONE
 10
116.5752698851746
 20
274.5508722674905
 30
0.0
  0
VERTEX
  5
8EE
  8
NONE
 10
116.6545010798649
 20
274.4560160728002
 30
0.0
  0
VERTEX
  5
8EF
  8
NONE
 10
116.7164479825197
 20
274.350927577225
 30
0.0
  0
VERTEX
  5
8F0
  8
NONE
 10
116.7606957701303
 20
274.2369895241276
 30
0.0
  0
VERTEX
  5
8F1
  8
NONE
 10
116.7872444426967
 20
274.1142019135082
 30
0.0
  0
VERTEX
  5
8F2
  8
NONE
 10
116.7960940002188
 20
273.9825647453666
 30
0.0
  0
VERTEX
  5
8F3
  8
NONE
 10
116.7922223188029
 20
273.8868443360745
 30
0.0
  0
VERTEX
  5
8F4
  8
NONE
 10
116.7806072745551
 20
273.7943733736852
 30
0.0
  0
VERTEX
  5
8F5
  8
NONE
 10
116.7612488674755
 20
273.7051518581984
 30
0.0
  0
VERTEX
  5
8F6
  8
NONE
 10
116.734147097564
 20
273.6191797896143
 30
0.0
  0
VERTEX
  5
8F7
  8
NONE
 10
116.6993019648206
 20
273.536457167933
 30
0.0
  0
VERTEX
  5
8F8
  8
NONE
 10
116.6567134692454
 20
273.4569839931542
 30
0.0
  0
VERTEX
  5
8F9
  8
NONE
 10
116.6063816108383
 20
273.3807602652781
 30
0.0
  0
VERTEX
  5
8FA
  8
NONE
 10
116.5483063895994
 20
273.3077859843046
 30
0.0
  0
VERTEX
  5
8FB
  8
NONE
 10
116.4630256926967
 20
273.2206731524463
 30
0.0
  0
VERTEX
  5
8FC
  8
NONE
 10
116.3686880267675
 20
273.1451753648357
 30
0.0
  0
VERTEX
  5
8FD
  8
NONE
 10
116.2652933918117
 20
273.0812926214728
 30
0.0
  0
VERTEX
  5
8FE
  8
NONE
 10
116.1528417878294
 20
273.0290249223577
 30
0.0
  0
VERTEX
  5
8FF
  8
NONE
 10
116.0313332148206
 20
272.9883722674905
 30
0.0
  0
VERTEX
  5
900
  8
NONE
 10
115.9007676727852
 20
272.959334656871
 30
0.0
  0
VERTEX
  5
901
  8
NONE
 10
115.7611451617232
 20
272.9419120904993
 30
0.0
  0
VERTEX
  5
902
  8
NONE
 10
115.6124656816348
 20
272.9361045683754
 30
0.0
  0
VERTEX
  5
903
  8
NONE
 10
115.4730160134932
 20
272.940805895809
 30
0.0
  0
VERTEX
  5
904
  8
NONE
 10
115.3577643542011
 20
272.9549098781099
 30
0.0
  0
VERTEX
  5
905
  8
NONE
 10
115.2667107037587
 20
272.978416515278
 30
0.0
  0
VERTEX
  5
906
  8
NONE
 10
115.1998550621657
 20
273.0113258073135
 30
0.0
  0
VERTEX
  5
907
  8
NONE
 10
115.1519430046436
 20
273.0496277984639
 30
0.0
  0
VERTEX
  5
908
  8
NONE
 10
115.1177201064135
 20
273.0893125329771
 30
0.0
  0
VERTEX
  5
909
  8
NONE
 10
115.0971863674755
 20
273.1303800108533
 30
0.0
  0
VERTEX
  5
90A
  8
NONE
 10
115.0903417878295
 20
273.1728302320922
 30
0.0
  0
VERTEX
  5
90B
  8
NONE
 10
115.1033395754401
 20
273.2331178427117
 30
0.0
  0
VERTEX
  5
90C
  8
NONE
 10
115.1423329382719
 20
273.2856620904993
 30
0.0
  0
VERTEX
  5
90D
  8
NONE
 10
115.1995785134932
 20
273.3221665152781
 30
0.0
  0
VERTEX
  5
90E
  8
NONE
 10
115.2673329382719
 20
273.334334656871
 30
0.0
  0
VERTEX
  5
90F
  8
NONE
 10
115.3231957701303
 20
273.32990987811
 30
0.0
  0
VERTEX
  5
910
  8
NONE
 10
115.380164796679
 20
273.3166355418268
 30
0.0
  0
VERTEX
  5
911
  8
NONE
 10
115.5505187789799
 20
273.2358833294374
 30
0.0
  0
VERTEX
  5
912
  8
NONE
 10
115.6627975400419
 20
273.1802970462516
 30
0.0
  0
VERTEX
  5
913
  8
NONE
 10
115.734147097564
 20
273.1529187276674
 30
0.0
  0
VERTEX
  5
914
  8
NONE
 10
115.8187709913693
 20
273.1346665152781
 30
0.0
  0
VERTEX
  5
915
  8
NONE
 10
115.9089258586259
 20
273.1285824444816
 30
0.0
  0
VERTEX
  5
916
  8
NONE
 10
116.0180934471215
 20
273.139506117048
 30
0.0
  0
VERTEX
  5
917
  8
NONE
 10
116.1199324957941
 20
273.1722771347471
 30
0.0
  0
VERTEX
  5
918
  8
NONE
 10
116.2144430046436
 20
273.226895497579
 30
0.0
  0
VERTEX
  5
919
  8
NONE
 10
116.3016249736702
 20
273.3033612055436
 30
0.0
  0
VERTEX
  5
91A
  8
NONE
 10
116.3747029603958
 20
273.3947605418268
 30
0.0
  0
VERTEX
  5
91B
  8
NONE
 10
116.4269015223427
 20
273.4941797896143
 30
0.0
  0
VERTEX
  5
91C
  8
NONE
 10
116.4582206595109
 20
273.6016189489064
 30
0.0
  0
VERTEX
  5
91D
  8
NONE
 10
116.4686603719003
 20
273.7170780197029
 30
0.0
  0
VERTEX
  5
91E
  8
NONE
 10
116.4638207701303
 20
273.8039143028887
 30
0.0
  0
VERTEX
  5
91F
  8
NONE
 10
116.4493019648206
 20
273.8896443913843
 30
0.0
  0
VERTEX
  5
920
  8
NONE
 10
116.4251039559711
 20
273.9742682851896
 30
0.0
  0
VERTEX
  5
921
  8
NONE
 10
116.3912267435817
 20
274.0577859843046
 30
0.0
  0
VERTEX
  5
922
  8
NONE
 10
116.3309391329622
 20
274.1667461612958
 30
0.0
  0
VERTEX
  5
923
  8
NONE
 10
116.2651205488914
 20
274.2458390816498
 30
0.0
  0
VERTEX
  5
924
  8
NONE
 10
116.1522886904843
 20
274.3301864267825
 30
0.0
  0
VERTEX
  5
925
  8
NONE
 10
116.0040586019887
 20
274.4062373117383
 30
0.0
  0
VERTEX
  5
926
  8
NONE
 10
115.92067917721
 20
274.4376947232427
 30
0.0
  0
VERTEX
  5
927
  8
NONE
 10
115.8364701064135
 20
274.4601643028887
 30
0.0
  0
VERTEX
  5
928
  8
NONE
 10
115.7514313895994
 20
274.4736460506763
 30
0.0
  0
VERTEX
  5
929
  8
NONE
 10
115.6655630267675
 20
274.4781399666055
 30
0.0
  0
VERTEX
  5
92A
  8
NONE
 10
115.5947665665905
 20
274.4781399666055
 30
0.0
  0
VERTEX
  5
92B
  8
NONE
 10
115.5947665665905
 20
274.5445116480215
 30
0.0
  0
VERTEX
  5
92C
  8
NONE
 10
115.6822250842896
 20
274.5606897453666
 30
0.0
  0
VERTEX
  5
92D
  8
NONE
 10
115.769821876325
 20
274.5871001435967
 30
0.0
  0
VERTEX
  5
92E
  8
NONE
 10
115.8575569426967
 20
274.6237428427117
 30
0.0
  0
VERTEX
  5
92F
  8
NONE
 10
115.9454302834047
 20
274.6706178427117
 30
0.0
  0
VERTEX
  5
930
  8
NONE
 10
116.0273578276525
 20
274.7252362055436
 30
0.0
  0
VERTEX
  5
931
  8
NONE
 10
116.0972555046436
 20
274.7851089931542
 30
0.0
  0
VERTEX
  5
932
  8
NONE
 10
116.1551233143781
 20
274.8502362055436
 30
0.0
  0
VERTEX
  5
933
  8
NONE
 10
116.200961256856
 20
274.9206178427117
 30
0.0
  0
VERTEX
  5
934
  8
NONE
 10
116.2358063895994
 20
274.9954242586409
 30
0.0
  0
VERTEX
  5
935
  8
NONE
 10
116.2606957701304
 20
275.0738258073135
 30
0.0
  0
VERTEX
  5
936
  8
NONE
 10
116.2756293984489
 20
275.1558224887294
 30
0.0
  0
VERTEX
  5
937
  8
NONE
 10
116.2806072745551
 20
275.2414143028887
 30
0.0
  0
VERTEX
  5
938
  8
NONE
 10
116.2716885798649
 20
275.3498905197029
 30
0.0
  0
VERTEX
  5
939
  8
NONE
 10
116.2449324957941
 20
275.4474430639506
 30
0.0
  0
VERTEX
  5
93A
  8
NONE
 10
116.2003390223427
 20
275.534071935632
 30
0.0
  0
VERTEX
  5
93B
  8
NONE
 10
116.1379081595109
 20
275.6097771347471
 30
0.0
  0
VERTEX
  5
93C
  8
NONE
 10
116.0622029603958
 20
275.671240077225
 30
0.0
  0
VERTEX
  5
93D
  8
NONE
 10
115.9777864780949
 20
275.7151421789949
 30
0.0
  0
VERTEX
  5
93E
  8
NONE
 10
115.8846587126082
 20
275.7414834400569
 30
0.0
  0
VERTEX
  5
93F
  8
NONE
 10
115.7828196639357
 20
275.7502638604108
 30
0.0
  0
VERTEX
  5
940
  8
NONE
 10
115.6988525732277
 20
275.7445254754551
 30
0.0
  0
VERTEX
  5
941
  8
NONE
 10
115.6184114780949
 20
275.7273103205878
 30
0.0
  0
VERTEX
  5
942
  8
NONE
 10
115.5414963785374
 20
275.698618395809
 30
0.0
  0
VERTEX
  5
943
  8
NONE
 10
115.4681072745551
 20
275.6584497011188
 30
0.0
  0
VERTEX
  5
944
  8
NONE
 10
115.398244166148
 20
275.606804236517
 30
0.0
  0
VERTEX
  5
945
  8
NONE
 10
115.3319070533162
 20
275.5436820020037
 30
0.0
  0
VERTEX
  5
946
  8
NONE
 10
115.2690959360596
 20
275.4690829975789
 30
0.0
  0
VERTEX
  5
947
  8
NONE
 10
115.2098108143781
 20
275.3830072232427
 30
0.0
  0
SEQEND
  5
A4C
  8
NONE
  0
POLYLINE
  5
C7
  8
NONE
 66
     1
 10
0.0
 20
0.0
 30
0.0
 70
     1
  0
VERTEX
  5
948
  8
NONE
 10
119.2806072745551
 20
274.0953966037737
 30
0.0
  0
VERTEX
  5
949
  8
NONE
 10
119.2806072745551
 20
273.7812373117383
 30
0.0
  0
VERTEX
  5
94A
  8
NONE
 10
118.8779524072985
 20
273.7812373117383
 30
0.0
  0
VERTEX
  5
94B
  8
NONE
 10
118.8779524072985
 20
272.9892019135082
 30
0.0
  0
VERTEX
  5
94C
  8
NONE
 10
118.5129081595109
 20
272.9892019135082
 30
0.0
  0
VERTEX
  5
94D
  8
NONE
 10
118.5129081595109
 20
273.7812373117383
 30
0.0
  0
VERTEX
  5
94E
  8
NONE
 10
117.2429966550861
 20
273.7812373117383
 30
0.0
  0
VERTEX
  5
94F
  8
NONE
 10
117.2429966550861
 20
274.0644231524462
 30
0.0
  0
VERTEX
  5
950
  8
NONE
 10
118.6345895754401
 20
276.051148816163
 30
0.0
  0
VERTEX
  5
951
  8
NONE
 10
118.8779524072985
 20
276.051148816163
 30
0.0
  0
VERTEX
  5
952
  8
NONE
 10
118.8779524072985
 20
274.0953966037737
 30
0.0
  0
SEQEND
  5
A4D
  8
NONE
  0
POLYLINE
  5
C8
  8
NONE
 66
     1
 10
0.0
 20
0.0
 30
0.0
 70
     1
  0
VERTEX
  5
953
  8
NONE
 10
118.5129081595109
 20
274.0953966037737
 30
0.0
  0
VERTEX
  5
954
  8
NONE
 10
118.5129081595109
 20
275.584334656871
 30
0.0
  0
VERTEX
  5
955
  8
NONE
 10
117.4598108143781
 20
274.0953966037737
 30
0.0
  0
SEQEND
  5
A4E
  8
NONE
  0
POLYLINE
  5
C9
  8
NONE
 66
     1
 10
0.0
 20
0.0
 30
0.0
 70
     1
  0
VERTEX
  5
956
  8
NONE
 10
120.0040586019887
 20
273.4184054533312
 30
0.0
  0
VERTEX
  5
957
  8
NONE
 10
120.053975637387
 20
273.413911537402
 30
0.0
  0
VERTEX
  5
958
  8
NONE
 10
120.0997444426967
 20
273.4004297896143
 30
0.0
  0
VERTEX
  5
959
  8
NONE
 10
120.1413650179179
 20
273.3779602099684
 30
0.0
  0
VERTEX
  5
95A
  8
NONE
 10
120.1788373630507
 20
273.3465027984639
 30
0.0
  0
VERTEX
  5
95B
  8
NONE
 10
120.2098108143781
 20
273.3086847674905
 30
0.0
  0
VERTEX
  5
95C
  8
NONE
 10
120.2319347081834
 20
273.2671333294374
 30
0.0
  0
VERTEX
  5
95D
  8
NONE
 10
120.2452090444666
 20
273.2218484843046
 30
0.0
  0
VERTEX
  5
95E
  8
NONE
 10
120.2496338232277
 20
273.1728302320922
 30
0.0
  0
VERTEX
  5
95F
  8
NONE
 10
120.2451399072985
 20
273.1238119798799
 30
0.0
  0
VERTEX
  5
960
  8
NONE
 10
120.2316581595109
 20
273.0785271347471
 30
0.0
  0
VERTEX
  5
961
  8
NONE
 10
120.2091885798648
 20
273.036975696694
 30
0.0
  0
VERTEX
  5
962
  8
NONE
 10
120.1777311683604
 20
272.9991576657205
 30
0.0
  0
VERTEX
  5
963
  8
NONE
 10
120.139913137387
 20
272.9677002542161
 30
0.0
  0
VERTEX
  5
964
  8
NONE
 10
120.0983616993339
 20
272.9452306745701
 30
0.0
  0
VERTEX
  5
965
  8
NONE
 10
120.0530768542011
 20
272.9317489267825
 30
0.0
  0
VERTEX
  5
966
  8
NONE
 10
120.0040586019887
 20
272.9272550108533
 30
0.0
  0
VERTEX
  5
967
  8
NONE
 10
119.9550403497763
 20
272.9317489267825
 30
0.0
  0
VERTEX
  5
968
  8
NONE
 10
119.9097555046436
 20
272.9452306745701
 30
0.0
  0
VERTEX
  5
969
  8
NONE
 10
119.8682040665905
 20
272.9677002542161
 30
0.0
  0
VERTEX
  5
96A
  8
NONE
 10
119.8303860356171
 20
272.9991576657205
 30
0.0
  0
VERTEX
  5
96B
  8
NONE
 10
119.7989286241126
 20
273.036975696694
 30
0.0
  0
VERTEX
  5
96C
  8
NONE
 10
119.7764590444666
 20
273.0785271347471
 30
0.0
  0
VERTEX
  5
96D
  8
NONE
 10
119.762977296679
 20
273.1238119798799
 30
0.0
  0
VERTEX
  5
96E
  8
NONE
 10
119.7584833807498
 20
273.1728302320922
 30
0.0
  0
VERTEX
  5
96F
  8
NONE
 10
119.762977296679
 20
273.2227472674904
 30
0.0
  0
VERTEX
  5
970
  8
NONE
 10
119.7764590444666
 20
273.2685160728002
 30
0.0
  0
VERTEX
  5
971
  8
NONE
 10
119.7989286241126
 20
273.3101366480215
 30
0.0
  0
VERTEX
  5
972
  8
NONE
 10
119.8303860356171
 20
273.3476089931542
 30
0.0
  0
VERTEX
  5
973
  8
NONE
 10
119.8682040665905
 20
273.3785824444817
 30
0.0
  0
VERTEX
  5
974
  8
NONE
 10
119.9097555046436
 20
273.400706338287
 30
0.0
  0
VERTEX
  5
975
  8
NONE
 10
119.9550403497763
 20
273.4139806745702
 30
0.0
  0
SEQEND
  5
A4F
  8
NONE
  0
POLYLINE
  5
CA
  8
NONE
 66
     1
 10
0.0
 20
0.0
 30
0.0
 70
     1
  0
VERTEX
  5
976
  8
NONE
 10
120.809368336502
 20
272.9272550108533
 30
0.0
  0
VERTEX
  5
977
  8
NONE
 10
120.809368336502
 20
273.009113417933
 30
0.0
  0
VERTEX
  5
978
  8
NONE
 10
120.9506847081834
 20
273.0191383073135
 30
0.0
  0
VERTEX
  5
979
  8
NONE
 10
121.0870232037587
 20
273.044788196694
 30
0.0
  0
VERTEX
  5
97A
  8
NONE
 10
121.2183838232277
 20
273.0860630860745
 30
0.0
  0
VERTEX
  5
97B
  8
NONE
 10
121.3447665665905
 20
273.1429629754551
 30
0.0
  0
VERTEX
  5
97C
  8
NONE
 10
121.4676233143781
 20
273.2197743692603
 30
0.0
  0
VERTEX
  5
97D
  8
NONE
 10
121.5884059471215
 20
273.3207837719153
 30
0.0
  0
VERTEX
  5
97E
  8
NONE
 10
121.7071144648206
 20
273.4459911834197
 30
0.0
  0
VERTEX
  5
97F
  8
NONE
 10
121.8237488674755
 20
273.5953966037737
 30
0.0
  0
VERTEX
  5
980
  8
NONE
 10
121.9305657922542
 20
273.7609109843046
 30
0.0
  0
VERTEX
  5
981
  8
NONE
 10
122.019821876325
 20
273.93444527634
 30
0.0
  0
VERTEX
  5
982
  8
NONE
 10
122.0915171196879
 20
274.1159994798799
 30
0.0
  0
VERTEX
  5
983
  8
NONE
 10
122.1456515223427
 20
274.3055735949241
 30
0.0
  0
VERTEX
  5
984
  8
NONE
 10
121.9761271860595
 20
274.2078136391719
 30
0.0
  0
VERTEX
  5
985
  8
NONE
 10
121.8148993099533
 20
274.1379850993488
 30
0.0
  0
VERTEX
  5
986
  8
NONE
 10
121.6619678940241
 20
274.0960879754551
 30
0.0
  0
VERTEX
  5
987
  8
NONE
 10
121.5173329382719
 20
274.0821222674905
 30
0.0
  0
VERTEX
  5
988
  8
NONE
 10
121.4396573298648
 20
274.0859420960304
 30
0.0
  0
VERTEX
  5
989
  8
NONE
 10
121.3648163453516
 20
274.0974015816498
 30
0.0
  0
VERTEX
  5
98A
  8
NONE
 10
121.2928099847321
 20
274.116500724349
 30
0.0
  0
VERTEX
  5
98B
  8
NONE
 10
121.2236382480064
 20
274.1432395241276
 30
0.0
  0
VERTEX
  5
98C
  8
NONE
 10
121.1573011351746
 20
274.177617980986
 30
0.0
  0
VERTEX
  5
98D
  8
NONE
 10
121.0937986462365
 20
274.2196360949241
 30
0.0
  0
VERTEX
  5
98E
  8
NONE
 10
121.0331307811923
 20
274.2692938659418
 30
0.0
  0
VERTEX
  5
98F
  8
NONE
 10
120.9752975400419
 20
274.3265912940391
 30
0.0
  0
VERTEX
  5
990
  8
NONE
 10
120.9224076064135
 20
274.3902147730215
 30
0.0
  0
VERTEX
  5
991
  8
NONE
 10
120.8765696639356
 20
274.458850696694
 30
0.0
  0
VERTEX
  5
992
  8
NONE
 10
120.8377837126082
 20
274.5324990650568
 30
0.0
  0
VERTEX
  5
993
  8
NONE
 10
120.8060497524312
 20
274.6111598781099
 30
0.0
  0
VERTEX
  5
994
  8
NONE
 10
120.7813677834047
 20
274.6948331358533
 30
0.0
  0
VERTEX
  5
995
  8
NONE
 10
120.7637378055286
 20
274.7835188382869
 30
0.0
  0
VERTEX
  5
996
  8
NONE
 10
120.7496338232277
 20
274.975927577225
 30
0.0
  0
VERTEX
  5
997
  8
NONE
 10
120.7637378055286
 20
275.1674375329771
 30
0.0
  0
VERTEX
  5
998
  8
NONE
 10
120.8060497524312
 20
275.3481620904993
 30
0.0
  0
VERTEX
  5
999
  8
NONE
 10
120.8377837126082
 20
275.434479844924
 30
0.0
  0
VERTEX
  5
99A
  8
NONE
 10
120.8765696639356
 20
275.5181012497914
 30
0.0
  0
VERTEX
  5
99B
  8
NONE
 10
120.9752975400419
 20
275.6772550108533
 30
0.0
  0
VERTEX
  5
99C
  8
NONE
 10
121.0459211572985
 20
275.7648863714728
 30
0.0
  0
VERTEX
  5
99D
  8
NONE
 10
121.1217300621657
 20
275.8408335506763
 30
0.0
  0
VERTEX
  5
99E
  8
NONE
 10
121.2027242546436
 20
275.9050965484639
 30
0.0
  0
VERTEX
  5
99F
  8
NONE
 10
121.2889037347321
 20
275.9576753648356
 30
0.0
  0
VERTEX
  5
9A0
  8
NONE
 10
121.3802685024312
 20
275.9985699997914
 30
0.0
  0
VERTEX
  5
9A1
  8
NONE
 10
121.476818557741
 20
276.0277804533312
 30
0.0
  0
VERTEX
  5
9A2
  8
NONE
 10
121.5785539006613
 20
276.0453067254551
 30
0.0
  0
VERTEX
  5
9A3
  8
NONE
 10
121.6854745311923
 20
276.051148816163
 30
0.0
  0
VERTEX
  5
9A4
  8
NONE
 10
121.7761824957941
 20
276.0463783515613
 30
0.0
  0
VERTEX
  5
9A5
  8
NONE
 10
121.863571876325
 20
276.0320669577559
 30
0.0
  0
VERTEX
  5
9A6
  8
NONE
 10
121.9476426727852
 20
276.0082146347471
 30
0.0
  0
VERTEX
  5
9A7
  8
NONE
 10
122.0283948851746
 20
275.9748213825347
 30
0.0
  0
VERTEX
  5
9A8
  8
NONE
 10
122.1058285134932
 20
275.9318872011188
 30
0.0
  0
VERTEX
  5
9A9
  8
NONE
 10
122.179943557741
 20
275.8794120904993
 30
0.0
  0
VERTEX
  5
9AA
  8
NONE
 10
122.2507400179179
 20
275.8173960506763
 30
0.0
  0
VERTEX
  5
9AB
  8
NONE
 10
122.3182178940241
 20
275.7458390816498
 30
0.0
  0
VERTEX
  5
9AC
  8
NONE
 10
122.3939230931392
 20
275.6484939489064
 30
0.0
  0
VERTEX
  5
9AD
  8
NONE
 10
122.4595342657056
 20
275.5456178427116
 30
0.0
  0
VERTEX
  5
9AE
  8
NONE
 10
122.5150514117233
 20
275.4372107630657
 30
0.0
  0
VERTEX
  5
9AF
  8
NONE
 10
122.5604745311923
 20
275.3232727099684
 30
0.0
  0
VERTEX
  5
9B0
  8
NONE
 10
122.5958036241126
 20
275.2038036834197
 30
0.0
  0
VERTEX
  5
9B1
  8
NONE
 10
122.6210386904843
 20
275.0788036834197
 30
0.0
  0
VERTEX
  5
9B2
  8
NONE
 10
122.6361797303073
 20
274.9482727099684
 30
0.0
  0
VERTEX
  5
9B3
  8
NONE
 10
122.6412267435817
 20
274.8122107630657
 30
0.0
  0
VERTEX
  5
9B4
  8
NONE
 10
122.6373896307498
 20
274.6882651048799
 30
0.0
  0
VERTEX
  5
9B5
  8
NONE
 10
122.6258782922542
 20
274.5664281303223
 30
0.0
  0
VERTEX
  5
9B6
  8
NONE
 10
122.6066927280949
 20
274.4466998393931
 30
0.0
  0
VERTEX
  5
9B7
  8
NONE
 10
122.5798329382719
 20
274.3290802320922
 30
0.0
  0
VERTEX
  5
9B8
  8
NONE
 10
122.5452989227852
 20
274.2135693084197
 30
0.0
  0
VERTEX
  5
9B9
  8
NONE
 10
122.5030906816348
 20
274.1001670683754
 30
0.0
  0
VERTEX
  5
9BA
  8
NONE
 10
122.4532082148206
 20
273.9888735119595
 30
0.0
  0
VERTEX
  5
9BB
  8
NONE
 10
122.3956515223427
 20
273.8796886391719
 30
0.0
  0
VERTEX
  5
9BC
  8
NONE
 10
122.3312502502188
 20
273.7738569190391
 30
0.0
  0
VERTEX
  5
9BD
  8
NONE
 10
122.2608340444666
 20
273.6726228205878
 30
0.0
  0
VERTEX
  5
9BE
  8
NONE
 10
122.1844029050861
 20
273.5759863438179
 30
0.0
  0
VERTEX
  5
9BF
  8
NONE
 10
122.1019568320772
 20
273.4839474887294
 30
0.0
  0
VERTEX
  5
9C0
  8
NONE
 10
121.9190198851746
 20
273.3136626435967
 30
0.0
  0
VERTEX
  5
9C1
  8
NONE
 10
121.7120232037587
 20
273.1617682851896
 30
0.0
  0
VERTEX
  5
9C2
  8
NONE
 10
121.5299159028737
 20
273.0591687276674
 30
0.0
  0
VERTEX
  5
9C3
  8
NONE
 10
121.4358547856171
 20
273.0188617586409
 30
0.0
  0
VERTEX
  5
9C4
  8
NONE
 10
121.3397886904843
 20
272.9858833294373
 30
0.0
  0
VERTEX
  5
9C5
  8
NONE
 10
121.2417176174755
 20
272.9602334400569
 30
0.0
  0
VERTEX
  5
9C6
  8
NONE
 10
121.1416415665905
 20
272.9419120904993
 30
0.0
  0
VERTEX
  5
9C7
  8
NONE
 10
120.9354745311923
 20
272.9272550108533
 30
0.0
  0
SEQEND
  5
A50
  8
NONE
  0
POLYLINE
  5
CB
  8
NONE
 66
     1
 10
0.0
 20
0.0
 30
0.0
 70
     1
  0
VERTEX
  5
9C8
  8
NONE
 10
122.1810497524312
 20
274.4692904090834
 30
0.0
  0
VERTEX
  5
9C9
  8
NONE
 10
122.2109170090684
 20
274.7281399666056
 30
0.0
  0
VERTEX
  5
9CA
  8
NONE
 10
122.2208727612808
 20
274.9294674002338
 30
0.0
  0
VERTEX
  5
9CB
  8
NONE
 10
122.2163097081834
 20
275.038911537402
 30
0.0
  0
VERTEX
  5
9CC
  8
NONE
 10
122.2026205488914
 20
275.1526421789949
 30
0.0
  0
VERTEX
  5
9CD
  8
NONE
 10
122.1798052834047
 20
275.2706593250126
 30
0.0
  0
VERTEX
  5
9CE
  8
NONE
 10
122.1478639117233
 20
275.3929629754551
 30
0.0
  0
VERTEX
  5
9CF
  8
NONE
 10
122.1075569426967
 20
275.5101504754551
 30
0.0
  0
VERTEX
  5
9D0
  8
NONE
 10
122.0596448851746
 20
275.6128191701454
 30
0.0
  0
VERTEX
  5
9D1
  8
NONE
 10
122.0041277391569
 20
275.7009690595259
 30
0.0
  0
VERTEX
  5
9D2
  8
NONE
 10
121.9410055046436
 20
275.7746001435967
 30
0.0
  0
VERTEX
  5
9D3
  8
NONE
 10
121.8717991993339
 20
275.8326753648356
 30
0.0
  0
VERTEX
  5
9D4
  8
NONE
 10
121.7980298409268
 20
275.8741576657205
 30
0.0
  0
VERTEX
  5
9D5
  8
NONE
 10
121.7196974294224
 20
275.8990470462515
 30
0.0
  0
VERTEX
  5
9D6
  8
NONE
 10
121.6368019648206
 20
275.9073435064285
 30
0.0
  0
VERTEX
  5
9D7
  8
NONE
 10
121.5413926727852
 20
275.8962815595258
 30
0.0
  0
VERTEX
  5
9D8
  8
NONE
 10
121.4520674515463
 20
275.8630957188179
 30
0.0
  0
VERTEX
  5
9D9
  8
NONE
 10
121.3688263011038
 20
275.8077859843046
 30
0.0
  0
VERTEX
  5
9DA
  8
NONE
 10
121.2916692214578
 20
275.730352355986
 30
0.0
  0
VERTEX
  5
9DB
  8
NONE
 10
121.226818557741
 20
275.6310713825347
 30
0.0
  0
VERTEX
  5
9DC
  8
NONE
 10
121.1804966550861
 20
275.5102196126232
 30
0.0
  0
VERTEX
  5
9DD
  8
NONE
 10
121.1527035134932
 20
275.3677970462515
 30
0.0
  0
VERTEX
  5
9DE
  8
NONE
 10
121.1434391329622
 20
275.2038036834197
 30
0.0
  0
VERTEX
  5
9DF
  8
NONE
 10
121.1557455488914
 20
274.9831178427117
 30
0.0
  0
VERTEX
  5
9E0
  8
NONE
 10
121.192664796679
 20
274.7878744798799
 30
0.0
  0
VERTEX
  5
9E1
  8
NONE
 10
121.2203542325197
 20
274.6997937276675
 30
0.0
  0
VERTEX
  5
9E2
  8
NONE
 10
121.254196876325
 20
274.6180735949241
 30
0.0
  0
VERTEX
  5
9E3
  8
NONE
 10
121.2941927280949
 20
274.5427140816498
 30
0.0
  0
VERTEX
  5
9E4
  8
NONE
 10
121.3403417878295
 20
274.4737151878444
 30
0.0
  0
VERTEX
  5
9E5
  8
NONE
 10
121.4163926727852
 20
274.390474037402
 30
0.0
  0
VERTEX
  5
9E6
  8
NONE
 10
121.5007400179179
 20
274.3310160728002
 30
0.0
  0
VERTEX
  5
9E7
  8
NONE
 10
121.5933838232277
 20
274.2953412940392
 30
0.0
  0
VERTEX
  5
9E8
  8
NONE
 10
121.6943240887144
 20
274.2834497011188
 30
0.0
  0
VERTEX
  5
9E9
  8
NONE
 10
121.8054966550861
 20
274.2956178427117
 30
0.0
  0
VERTEX
  5
9EA
  8
NONE
 10
121.9354745311923
 20
274.3321222674905
 30
0.0
  0
VERTEX
  5
9EB
  8
NONE
 10
122.0665586019887
 20
274.3907505860745
 30
0.0
  0
SEQEND
  5
A51
  8
NONE
  0
POLYLINE
  5
CC
  8
NONE
 66
     1
 10
0.0
 20
0.0
 30
0.0
  0
VERTEX
  5
9EC
  8
NONE
 10
103.8247030917389
 20
274.551148816163
 30
0.0
  0
VERTEX
  5
9ED
  8
NONE
 10
113.0903417878295
 20
274.551148816163
 30
0.0
  0
SEQEND
  5
A52
  8
NONE
  0
POLYLINE
  5
CD
  8
NONE
 66
     1
 10
0.0
 20
0.0
 30
0.0
  0
VERTEX
  5
9EE
  8
NONE
 10
124.6412267435817
 20
274.551148816163
 30
0.0
  0
VERTEX
  5
9EF
  8
NONE
 10
133.9068654396723
 20
274.551148816163
 30
0.0
  0
SEQEND
  5
A53
  8
NONE
  0
POLYLINE
  5
CE
  8
NONE
 66
     1
 10
0.0
 20
0.0
 30
0.0
  0
VERTEX
  5
9F0
  8
NONE
 10
101.3977030917389
 20
232.3640915853456
 30
0.0
  0
VERTEX
  5
9F1
  8
NONE
 10
101.3977030917389
 20
276.051148816163
 30
0.0
  0
SEQEND
  5
A54
  8
NONE
  0
POLYLINE
  5
CF
  8
NONE
 66
     1
 10
0.0
 20
0.0
 30
0.0
  0
VERTEX
  5
9F2
  8
NONE
 10
136.3338654396723
 20
232.3640915853456
 30
0.0
  0
VERTEX
  5
9F3
  8
NONE
 10
136.3338654396723
 20
276.051148816163
 30
0.0
  0
SEQEND
  5
A55
  8
NONE
  0
ENDSEC
  0
EOF
